P Diddy - Bad Boys For Life Chords & Tabs

 

Bad Boys For Life Chords & Tabs

P Diddy Chords & Tabs

Version: 1 Type: Tab

Bad Boys For Life Tab

Opening-----

e|-------------------------------------------]
b|-------------------------------------------]
g|-------------------------------------------]
d|-------------------------------2-----------]
a|----------0--4--2--0-----4--2--------------]
e|-------2--------------2--------------------]


The rest of the song -----
This is just repeated until the end of the song now -----
[ Tab from: https://www.guitartabs.cc/tabs/p/p_diddy/bad_boys_for_life_tab.html ]
e|-----------------------------------------------------------------
b|-----------------------------------------------------------------
g|-----------------------------------------------------------------
d|-------------2----7--4--2-4--x-x-x-x--2-----x-x-x-x--------------
a|-----------------------------------------4------------4--2--4----
e|--------2-2------------------------------------------------------

Continued- - - - - 

e|-----------------------------------------]
b|-----------------------------------------]
g|-----------------------------------------]
d|-----------------------------------------]
a|-----4-4-2-0----------4-2-0-----0--------]
e|---------------2--2----------2-----2-----]


Think this is correct , theres other ways of playing it but i think this is the easyest. :)