Overkill - Sonic Reducer Chords & Tabs

 

Sonic Reducer Chords & Tabs

Overkill Chords & Tabs

Version: 1 Type: Bass Tab

Sonic Reducer Bass Tab

Song: Sonic Reducer
Artist: OverKill
Album: Feel The Fire


INTRO

G-------|
D-------|
A-------|
E--9-10-|


VERSE 1

G----------------------------------------|
D----------------------------------------|
A----------------------------------------|
E-99999999--44444444--55555555--22222222-|

VERSE 2

G--------------------------------|
D--------------------------------|
A--------------------------------|
E9~------44------5~------22-----|

VERSE 3
[ Tab from: https://www.guitartabs.cc/tabs/o/overkill/sonic_reducer_btab.html ]
G--------------------------------|
D--------------------------------|
A--------------------------------|
E9~------4~------5~------2~-----|

PRE-CHORUS

G------------------------------------|
D------------------------------------|
A------------------------------------|
E-0-----2-2-2--------5-----7-7-7-----|

CHORUS

G---------------------------------------------|
D---------------------------------------------|
A---------------------------------------------|
E-7/99-9-9---7/99-9-9----7---5------7-7-7-7-|


INTRO
REST (Only Guitar plays)
VERSE 2 x2
VERSE 1 x2
VERSE 2
PRE-CHORUS
CHORUS x2
VERSE 1 x4
VERSE 2
PRE-CHORUS
CHORUS x2
VERSE 1 x4
VERSE 3 x4
VERSE 1 x3
PRE-CHORUS
CHORUS x4
OUTRO