Outlaws - There Goes Another Love Song Chords & Tabs

 

There Goes Another Love Song Chords & Tabs

Outlaws Chords & Tabs

Version: 1 Type: Bass Tab

There Goes Another Love Song Bass Tab

SONG:  THERE GOES ANOTHER LOVE SONG		ARTIST: OUTLAWS

INTRO:
G|---------------------------------------------|
D|---------------------------------------------| X4
A|------------------3-3-3-3-3-3----------------|
E |----3--3--1-1-------------------------------|

VERSE: 1
G|----------------------------------------------------------------------------------|
D|----------------------------------------------------------------------------------|
A|------------------333333------------------33333------------------3333-------------|
E |---3---3--1--1------------11----3----1------------11----3---1--------------------|

G|----------------------------------|
D|----------------------------------|
A|--------------333333--------------|
E |---3----11-----------------------|

VERSE: 2
G|-----------------------------------------------------------------------|
D|-----------------------------------------------------------------------|
A|------------------333333------------------------33333------------------|
E |---3--3--1--1--------------11----3-3----1-1------------11-------------|

CHORUS: 1
G|-----------------------------------------------------------------------------------------------|
D|-----------------------------------------------------------------------------------------------|
A|---------------333333--------------333333-------------333333--------------33333355555555-3~--|
E|---33----11-------------33----11--------------3311-------------33----11-----------------------|

G|---------------------------------|
D|---------------------------------|
A|------------------333333---------|
E|----3-3----1-1-------------------|
[ Tab from: https://www.guitartabs.cc/tabs/o/outlaws/there_goes_another_love_song_btab.html ]
VERSE: 3
G|-------------------------------------------------------------------------|
D|-------------------------------------------------------------------------|
A|----------------333333-------------------------333333--------------------|
E|--3--3--1--1-----------------1--1----3--3--1--1----------------11-------|

CHORUS: 2
G|-----------------------------------------------------------------------------------|
D|-----------------------------------------------------------------------------------|
A|---------------333333--------------333333-------------333333--------------3333333--|
E|---33----11-------------33----11--------------3311-------------33----11-----------|

G|----------------------------------|
D|----------------------------------| x4
A|------------------333333----------|
E|----3-3----1-1--------------------|

BRIDGE: (DO, do,do,do)
G|--------------------------------------------|
D|--------------------------------------------|
A|---333333-------------333333----------------|
E|---------------33--11-----------------------|


G|---------------------------------|
D|---------------------------------| x3
A|------------------333333---------|
E|----3-3----1-1-------------------|

CHORUS: 3
G|-----------------------------------------------------------------------------------|
D|-----------------------------------------------------------------------------------|
A|---------------333333--------------333333-------------333333--------------3333333--|
E|---33----11-------------33----11--------------3311-------------33----11-----------|

OUTRO:
G|--------------------------------------------------------------------------------------------|
D|--------------------------------------------------------------------------------------------|
A|---------------333333--------------333333-------------333333--------------33333355555555--|
E|---33----11-------------33----11--------------3311-------------33----11--------------------|