Otep - Tric Chords & Tabs

 

Tric Chords & Tabs

Otep Chords & Tabs

Version: 2 Type: Tab

Tric Tab

Verse:
-------------------------------------------------------------------------|
-------------------------------------------------------------------------|
-------------------------------------------------------------------------|
-------------------------------------------------------------------------|
-------------------------------------------------------------------------|
---6-6-6-6-2-2-2-2-0-0-0-0-1-1-1-1-----6-6-6-6-2-2-2-2-0-0-0-0-1-1-1-1---|
[ Tab from: https://www.guitartabs.cc/tabs/o/otep/tric_tab_ver_2.html ]
-------------------------------------------------------------------------|
-------------------------------------------------------------------------|
-------------------------------------------------------------------------|
-------------------------------------------------------------------------|
-------------------------------------------------------------------------|
---0-0-0-0-9-9-9-9-7-7-7-7-2-2-2-2-----0-0-0-0-9-9-9-9-7-7-7-7-2-2-2-2---|

Pre-chorus:
------------------------------------------------------|
------------------------------------------------------|
------------------------------------------------------|
---2-3-2-2---2-1-0-0-0-1----2-3-2-2---2-1-0-0-0-0-0---|
---2-3-2-2---2-1-0-0-0-1----2-3-2-2---2-1-0-0-0-0-0---|
---2-3-2-2---2-1-0-0-0-1----2-3-2-2---2-1-0-0-0-0-0---|

Chorus :  T.R.I.C. 
---------------------------|
---------------------------|
---------------------------|
---2-0-0-2-2---2-1-0-0-1---|
---2-0-0-2-2---2-1-0-0-1---|
---2-0-0-2-2---2-1-0-0-1---|

Bridge :
-------------------------------|
-------------------------------|
-------------------------------|
---0-0-0-2-2-2---0-0-0-6-6-6---|
---0-0-0-2-2-2---0-0-0-6-6-6---|
---0-0-0-2-2-2---0-0-0-6-6-6---|