Osker - Disconnect Disconnect Chords & Tabs

 

Disconnect Disconnect Chords & Tabs

Osker Chords & Tabs

Version: 1 Type: Bass Tab

Disconnect Disconnect Bass Tab

   
Osker  Idle Will Kill  Disconnect, Disconnect
 
Please Rate!

G|--------------------------|
D|--------------------------| 
A|--111111----999-------7---| x4 
E|-9------99-7---77-5-5---5-|

There way be some sort of harmonic on last repeat but Im not sure

Pause for guitar
Then: 0:50

G|---------------------------------------|
D|---------------------------------------| 
A|--------------7-766----------999-77766-| 
E|-5-555555/7/9-------7-7-7777-----------|

G|---------------------------------------|
D|---------------------------------------| 
A|--------------7-766-------------679-97-| 
E|-5-555555/7/9-------7-7-7777--9--------|

G|-----------------------------------|
D|-----------------------------------| 
A|-----6677----7766------------------| 
E|-9999----7777----55555555555555555-|

G|----------------------|
D|----------------------| 
A|----------------------| 
E|-9~-----7~-----5~-----|

G|--------------------------|
D|--------------------------| 
A|--111111----999-------7---| x 2
E|-9------99-7---77-5-5---5-|

G|-----------------------------------------|
D|-----------------------------------------| 
A|-----------------------------------------| x4
E|-77777777/12\9\5-55-7/9997/999-55555555-|

G|---------------------------------------|
D|---------------------------------------| 
A|--------------7-766----------999-77766-| 
E|-5-555555/7/9-------7-7-7777-----------|

G|---------------------------------------|
D|---------------------------------------| 
A|--------------7-766-------------679-97-| 
E|-5-555555/7/9-------7-7-7777--9--------|

[ Tab from: https://www.guitartabs.cc/tabs/o/osker/disconnect_disconnect_btab.html ]
G|-----------------------------------|
D|-----------------------------------| 
A|-----6677----7766------------------| 
E|-9999----7777----55555555555555555-|

G|----------------------------|
D|----------------------------| 
A|---11-1111~--9-99~--7-77-7~-| 
E|-9~--------7~-----5~--------|


2:30 acoustic guitar  no bass

2:45:

G|---------------------------------------------------------------------|
D|---------------------------------------------------------------------| 
A|---------------------------------------------------------------------| x3 
E|-0000000000000000-9999999999999999-7777777777777777-5555555555555555-|

G|--------------------------|
D|--------------------------| 
A|--111111----999-------7---| x4 
E|-9------99-7---77-5-5---5-|

G|---------------------------------------|
D|---------------------------------------| 
A|--------------7-766----------999-77766-| 
E|-5-555555/7/9-------7-7-7777-----------|

G|---------------------------------------|
D|---------------------------------------| 
A|--------------7-766-------------679-97-| 
E|-5-555555/7/9-------7-7-7777--9--------|

G|--------------------------------|
D|--------------------------------| 
A|-----6677----7766---------------| 
E|-9999----7777----55-55-55--55-|

G|----------------------|
D|----------------------| 
A|----------------------| 
E|-9~-----7~-----5~-----|

G|--------------------------------|
D|--------------------------------| 
A|-----6677----7766---------------| 
E|-9999----7777----55-55-55--55-|

G|---------------|
D|---------------| 
A|---------------| x3
E|-9~-----7~-----|

G|---------------|
D|---------------| 
A|---999----77---| x5 
E|-9~----7~------|