Osker - Animal Chords & Tabs

 

Animal Chords & Tabs

Osker Chords & Tabs

Version: 1 Type: Bass Tab

Animal Bass Tab

   
Band: Osker
Album: Idle Will Kill
Song: Animal

> = play 20 times
# = play 15 times
* = play 11 times
~ = let ring
/ = slide up


I havenít tabbed out the full strumming patterns because it would take too long and too 
space. Here are the two different strumming patterns:

a) -3-3333333333333-|
b) -3-33-33-3-33-33-| (played double the speed of a))


G|-----------|
D|-----------|
A|-------3>>-| x2     b)
E|-3>-0>-----|

G|-------------------------------------|
D|---------9-79-7----------------------|
A|-7-77-77-------10---------10-910-910-| x2    b)
E|------------------8-88-88------------|
[ Tab from: https://www.guitartabs.cc/tabs/o/osker/animal_btab.html ]
G|---------------------|
D|---------------------|
A|-3#------2-3#/7*---2-|    a)
E|----0*-3---------3---|

G|-------------------------------------|
D|-------------------------------------|
a|-3#/5-7-2*/77-77-5-3#/5-7-2*/77-77-5-|   b)
E|-------------------------------------|

G|----------------|
D|----------------|
a|-/777-3>/777-3>-|    a)
E|----------------|

G|----------------|
D|----------------|
a|-/777-3>/777-3>-|    b)
E|----------------|

Repeat above then: (2:02)

G|-------------|
D|-------------|
A|----5#-3-3-3-| x6  (last 3 times only play two 3ís)  b)
E|-0>----------|

G|--------|
D|--------|
A|-333----| a)
E|-----0~-|

Sorry, I know itís a bit messy but I think itís all there. If you listen to the song you 
get it.