Opeth - Patterns In The Ivy Chords & Tabs

 

Patterns In The Ivy Chords & Tabs

Opeth Chords & Tabs

Version: 1 Type: Bass Tab

Patterns In The Ivy Bass Tab

This is my first tab, so I decided to start out easy. 
This song sounds equally as good if you play the opens as 5ís on G


Main Line

G|---------------3| x4
D|0--------3-2-0--|
A|----------------|
E|----------------|

Fill #1

G|1-----1-2------2|
D|----------------|
A|----------------|
E|----------------|

G|3-----3-4------4|
D|----------------|
A|----------------|
E|----------------|

Main Line

G|---------------3| x4
D|0--------3-2-0--|
A|----------------|
E|----------------|

Fill #1
[ Tab from: https://www.guitartabs.cc/tabs/o/opeth/patterns_in_the_ivy_btab.html ]
G|1-----1-2------2|
D|----------------|
A|----------------|
E|----------------|

G|3-----3-4------4|
D|----------------|
A|----------------|
E|----------------|

Main Line

G|---------------3| x4
D|0--------3-2-0--|
A|----------------|
E|----------------|

Fill #2

G|----------------| 
D|6----5--3--0---0| -|
A|----------------|  |
E|----------------|  | x2


G|----------------|  |
D|2~--------------|  |
A|----------------| -|
E|----------------|

Main Line

G|---------------3| x8
D|0--------3-2-0--|
A|----------------|
E|----------------|

G|----------------|
D|0~--------------|
A|----------------|
E|----------------|

Done.