Opeth - Grand Conjuration Chords & Tabs

 

Grand Conjuration Chords & Tabs

Opeth Chords & Tabs

Version: 2 Type: Tab

Grand Conjuration Tab

The Grand Conjuration- Opeth
Ghost Reveries


Some parts arenít labeled as how many times you should play it, so donítí skip to the
next section until you have played that riff the necessary times. I did not include the
solo, but hope this is still good enough. Hope you guys enjoy it, I even included the
lyrics, and my email s wigga123@hotmail.com if you have any suggestions or corrections


|---------------------------------------------------| 
|-1010--1010--1010--99---99---99---66---66---66-----|
|-1010--1010--1010--99---99---99---66---66---66-----| 
|-1010--1010--1010--99---99---99---66---66---66-----| 
|-----0-----0-----0----0----0----0----0----0----0---| 
|-----0-----0-----0----0----0----0----0----0----0---| 

			
|-------------|-------------------------------------| 
|-------------|-------------------------------------|
|-------------|-------------------------------------| 
|-----12-12/5-|-1-0-4--5-4-7--12-10-6--7-6-0--------| 
|-0-0-12-12/5-|-1-0-4--5-4-7ó-12-10-6--7-6-0--------|
|-0-0-12-12/5-|-1-0-4--5-4-7--12-10-6--7-6-0--------|

Verse
Guitar 1

(Majesty Faithful me...)
|---------------------------------------------------| 
|---------------------------------------------------|
|---------------------------------------------------| 
|---------------------------------------------------| 
|-0-1-0--0-1-0--0-1-0--12-10-6----------------------| 
|-0-1-0--0-1-0--0-1-0--12-10-6----------------------|

Guitar 2 Verse (enters after Guitar 1 plays Verse once)
|---8--------8------| 
|-----10-------10---|
|-9------9-9------9-| 
|-------------------| 
|-------------------| 
|-------------------|

				Repeat
|----------------|-----------------------------------|
|----------------|-----------------------------------|
|----------------|-----------------------------------|
|-3/2-1-1-1-1/12-|-0-0-0-0-0-0--2-1-0-0-2-1-0-0-1/12-|
|-3/2-1-1-1-1/12-|-0-0-0-0-0-0--2-1-0-0-2-1-0-0-1/12-|
|-3/2-1-1-1-1/12-|-0-0-0-0-0-0--2-1-0-0-2-1-0-0-1/12-|


Repeat Verse
 

Play this again, then during solo
|---------------------------------------------|
|---------------------------------------------|
|---------------------------------------------|
|-3/2-1-1-1-0-0-0-0-0-0-2-1-0-0-2-1-0-0-1/12--|
|-3/2-1-1-1-0-0-0-0-0-0-2-1-0-0-2-1-0-0-1/12--|
|-3/2-1-1-1-0-0-0-0-0-0-2-1-0-0-2-1-0-0-1/12--|

After solo 
|---------------------------------------------|
|---------------------------------------------|
|---------------------------------------------|
|-----0----0-----0---------0---0---0---0---0--|
|---------------------------------------------|
|-0-1--1-3---3-6---5-10-12---7---6---3---1----|

Then
(Whispered conjuration a belief takes form)
|---------------------------------------------|
|---------------------------------------------|
|---------------------------------------------|
|-------------------3-----1-------------------|
|-----2-----4-------------------2-----4-------|
|-0-1---0-1---0-1-3---0-1---0-1---0-1---------|

Guitar1 harmonize>  Guitar 2
|-----------------|----------------------------|
|-----------------|----------------------------|
|-----------------|----------------------------|
|-----------------|-2h3-3-3h4-4----------------|
|---0h1-1-1h2-2---|----------------------------|
|-0---------------|----------------------------|

(Choking hand tapping the veins in your throat)
|---------------------------------------------|
|---------------------------------------------|
|---------------------------------------------|
|-------------------3-----1-------------------|
|-----2-----4-------------------2-----4-------|
|-0-1---0-1---0-1-3---0-1---0-1---0-1---------|

[ Tab from: https://www.guitartabs.cc/tabs/o/opeth/grand_conjuration_tab_ver_2.html ]
|---------------------------------------------|
|---------------------------------------------|
|---------------------------------------------|
|-5-5--3--5-5--2------------------------------|
|-5-5--3--5-5--2------------------------------|
|-5-5--3--5-5--2------------------------------|


Then comes the little Intermission (which is basically the same riff as the previous one), and repeat:

|---------------------------------------------|
|---------------------------------------------|
|---------------------------------------------|
|-5-5--3--5-5--2--3-2-0---0-------------------|
|-5-5--3--5-5--2--3-2-0---0-------------------|
|-5-5--3--5-5--2--3-2-0---0-------------------|

Riff (not completely right) 
|-------------------------------------------------------|
|-------------------------------------------------------|
|-------------------------------------------------------|
|-------------------------------------------------------|
|-------------------------------------------------7p5p0-|
|-5h7-7-7h8p7-7-7h8p7-10p8\7--5h7-7-7h8p7-7-7h8p7-------|

He briefly screams during this part:
|------------------------------------------|
|------------------------------------------|
|------------------------------------------|
|-0h5-555-0-0h5-0h5-5h6p5-0----------------|
|-0h5-555-0-0h5-0h5-5h6p5-0----------------|
|-0h5-555-0-0h5-0h5-5h6p5-0----------------|

|-------------------------------------------------------|
|-------------------------------------------------------|
|-------------------------------------------------------|
|-------------------------------------------------------|
|-------------------------------------------------7p5p0-|
|-5h7-7-7h8p7-7-7h8p7-10p8\7--5h7-7-7h8p7-7-7h8p7-------|


Then go back to beginning riff:
|--------------------------------------------------------------| 
|-1010--1010--1010--99---99---99---66---66---66----------------|
|-1010--1010--1010--99---99---99---66---66---66----------------| 
|-1010--1010--1010--99---99---99---66---66---66----------------| 
|-----0-----0-----0----0----0----0----0----0----0-0-12-12------| 
|-----0-----0-----0----0----0----0----0----0----0-0-12-12------| 


|-------------------------------------------------------|
|-------------------------------------------------------|
|-------------------------------------------------------|
|-0-0--12-12--0-0-12--0-0-12-12-------------------------|
|-0-0ó-12-12--0-0-12--0-0-12-12-------------------------|
|-0-0--12-12--0-0-12--0-0-12-12-------------------------|


|-------------------------------------| 
|-------------------------------------|
|-------------------------------------| 
|-1-0-4--5-4-7--12-10-6--7-6-0--------| 
|-1-0-4--5-4-7ó-12-10-6--7-6-0--------|
|-1-0-4--5-4-7--12-10-6--7-6-0--------|

(Tell me why Love Subsides...)
|---------------------------------------------------| 
|---------------------------------------------------|
|---------------------------------------------------| 
|---------------------------------------------------| 
|-0-1-0--0-1-0--0-1-0--12-10-6----------------------| 
|-0-1-0--0-1-0--0-1-0--12-10-6----------------------|

Plays again, just different tempo, then again to same tempo
He whispers something during this part:
|-------------------------------------| 
|-------------------------------------|
|-------------------------------------| 
|-1-0-4--5-4-7--12-10-6--7-6-0--------| 
|-1-0-4--5-4-7ó-12-10-6--7-6-0--------|
|-1-0-4--5-4-7--12-10-6--7-6-0--------|


Near the end, it changes a bit (palm mute)
|---------------------------------------------------------| 
|---------------------------------------------------------|
|---------------------------------------------------------| 
|-1-0-4--5-4-7--12-10-6---3-00-4-00-5-00--131313-12-------| 
|-1-0-4--5-4-7ó-12-10-6---3-00-4-00-5-00--131313-12-------|
|-1-0-4--5-4-7--12-10-6---3-00-4-00-5-00--131313-12-------|