Oasis - Rock N Roll Star Chords & Tabs

 

Rock N Roll Star Chords & Tabs

Oasis Chords & Tabs

Version: 3 Type: Tab

Rock N Roll Star Tab

   
Rock N Roll Star

Chords used

Asus2 	(x02200)
C#m7	(x46654)
G#m	(466444)
F#m	(244222)
E (b)	(779977)
b	(799877)
E	(022100)

Key

Lr- Let ring
(b)- Bar chord
b- Bend
r- Release
h- Hammer on
s- Slide
m- Mute string
p- Pull off
*- Vibrato

Intro

Guitar 1

E-------------------------------------------------------------|
B-------------------------------------------------------------|
G--------6b8Lr---m8r4*--------------4---6------6b8Lr---m8r4*--|
D------------------------------4---6--------------------------|
A-------------------------------------------------------------|
E-------------------------------------------------------------|

Guitar 2

E-----------7-------------------------|
B-----------7-------------------------|
G-----------8-------------------------|
D-----------9------------Pick scrape -|
A-----------9------------Pick scrape -|
E-----------7------------Pick scrape--|

Part 2

E-----------7-7-7-7-7-7-7----7-7-7-7--------7-7-7-7-7-7-7---7-7-7-7--------4-4-4-4-4---4-4-4-4--|
B-----------7-7-7-7-7-7-7----7-7-7-7--------7-7-7-7-7-7-7---7-7-7-7--------5-5-5-5-5---4-4-4-4--|
G-----------8-8-8-8-8-8-8----9-9-9-9--------8-8-8-8-8-8-8---9-9-9-9--------6-6-6-6-6---4-4-4-4--|
D-----------9-9-9-9-9-9-9----9-9-9-9--------9-9-9-9-9-9-9---9-9-9-9--------6-6-6-6-6---6-6-6-6--|
A-----------9-9-9-9-9-9-9----7-7-7-7--------9-9-9-9-9-9-9---7-7-7-7--------4-4-4-4-4---6-6-6-6--|
E-----------7-7-7-7-7-7-7----7-7-7-7--------7-7-7-7-7-7-7---7-7-7-7--------x-x-x-x-x---4-4-4-4--|

 b                                     E (b)
I live my life in the city
b                                      E (b)
Thereís no easy way out
C#m7            Asus2                           b      E (b)
The days moving just too fast for me

b                                                    E (b)
I need some time in the sunshine
b                                      E (b)
Gotta slow it right down
C#m7            Asus2                            b
The days moving just too fast for me

Bridge 1

  G#m                          E (b)
I live my life for the stars that shine
b
People say itís just a waste of time
G#m                                 E (b)
Then they said I should feed my head
b
That to me was just a day in bed
     G#m                       E (b)
I'll take my car and drive real far
                 b
Youíre not concerned about the way we are
 Asus2
In my mind my dreams are real
F#
Are you concerned about the way I feel?

Chorus 1

       Asus2    E                   b            E (b)
Toniiiiiiiiiiight Iím a rock 'n' roll star
       Asus2    E                   b
Toniiiiiiiiiiight Iím a rock 'n' roll star    E (b)


Verse 2

As verse 1

Bridge 2

As bridge 2

Chorus 2
[ Tab from: https://www.guitartabs.cc/tabs/o/oasis/rock_n_roll_star_tab_ver_3.html ]
       Asus2   E                   b            E (b)
Toniiiiiiiiiiight Iím a rock 'n' roll star
      Asus2    E                   b            E (b)
Toniiiiiiiiiiight Iím a rock 'n' roll star
      Asus2    E                   b            E (b)
Toniiiiiiiiiiight Iím a rock 'n 'roll star

Middle

Asus2
You're not down with who I am
E                                                		b
Look at you now you're all in my hands tonight.

Solo

b                                        E (b)            b
(b)            C#m7               Asus2

E----------------------------------------------------------------------------------0---0-0-0-0-0-0-0-0-0-0--|
B----------------------------------------------------------------10---------------0---0-0-0-0-0-0-0-0-0-0---|
G-----7h8p7 -----------------7-------7h8p7 ----------9s11-------11--9s8- 8h9-9-9-9-8-9-9-8-9-9-9------------|
D----------------9-9---7-9-------9--------------9--9--------------------------------------------------------|
A-----------------------------------------------------------------------------------------------------------|
E-----------------------------------------------------------------------------------------------------------|

Repeat all above again

b                  				E (b)

E---------------------------------------------------------|
B---------------------------------------------------------|
G---7h8p7------------------------------------7------------|
D------------------ -9-9-----------7-9-----------------9--|
A---------------------------------------------------------|
E---------------------------------------------------------|

Chorus 3

Asus2   E                   b            E (b)
Toniiiiiiiiiiight Iím a rock 'n' roll star
      Asus2    E                   b            E (b)
Toniiiiiiiiiiight Iím a rock 'n' roll star
      Asus2    E                   b            E (b)
Toniiiiiiiiiiight Iím a rock 'n 'roll star

Solo

Donít know this, YET

Outro

Repeat this over the lyrics; Itís just Rock n Roll

E-----------2--2--2--2---0-0-0-0---------------------------------------------------------------------------------------|
B-----------2--2--2--2---0-0-0-0---------------------------------------------------------------------------------------|
G-----------2--2--2--2---1-1-1-1---------------------------------------------------------------------------------------|
D-----------4--4--4--4---2-2-2-2---------------------------------------------------------------------------------------|
A-----------4--4--4--4---2-2-2-2---------------------------------------------------------------------------------------|
E-----------2--2--2--2---0-0-0-0---------------------------------------------------------------------------------------|

Then at the end

E-------9----9----9----9----7--|
B-------9----9----9----9----7--|
G------11--11---11--11----9----|
D------11--11---11--11----9----|
A-------9----9----9---9-----7--|
E-------9----9----9---9-----7--|