Nural - Chasing You Chords & Tabs

 

Chasing You Chords & Tabs

Nural Chords & Tabs

Version: 1 Type: Bass Tab

Chasing You Bass Tab

song title:  Chasing You
______________________
Artist name:   Nural
______________________
Tabbed by:  Spencer T.
______________________

Intro: X1


G-----------------------------------------------------------|
D-----------------------------------------------------------|
A--------------------------555------------------------------|
EŚ111-1-1/3/5-55-111-1-1/33---111-1-1/3/5-55-111-1-1/33-333-|

Verse: X2


G----------------------------------------------------------|
D-------------------------------8p6---6--------------------|
A----------------------------5h7---5h7---------------------|
E--1~~11~~13-3-15~~~-1~11~~1-------------------------------|

G----------------------------------------------------------|
D----------------------------------------------------------|
A----------------------------------------------------------|
E--1~~11~~13-3-111-1-1/3/5-55-111--------------------------|


Chorus: X1


G----------------------------------------------------------|
D----------------------------------------------------------|
A----------------------------------------------------------|
EŚ55555555333333335555555511111111-------------------------|

G----------------------------------------------------------|
D----------------------------------------------------------|
A----------------------------------------------------------|
EŚ-55555555333333335555555577777777------------------------|

Post-Chorus: X1


G---------------------------------------------------------|
D------------------7p5------------------------------------|
A-----------------5---7p5-3~~-----------------------------|
E--5~~~~~~45~~~~~~----------------------------------------|


Verse: X2


G----------------------------------------------------------|
D-------------------------------8p6---6--------------------|
A----------------------------5h7---5h7---------------------|
E--1~~11~~13-3-15~~~-1~11~~1-------------------------------|

G----------------------------------------------------------|
D----------------------------------------------------------|
A----------------------------------------------------------|
E--1~~11~~13-3-111-1-1/3/5-55-111--------------------------|

[ Tab from: https://www.guitartabs.cc/tabs/n/nural/chasing_you_btab.html ]
Chorus: X2


G----------------------------------------------------------|
D----------------------------------------------------------|
A----------------------------------------------------------|
EŚ-55555555333333335555555511111111------------------------|


G----------------------------------------------------------|
D----------------------------------------------------------|
A----------------------------------------------------------|
EŚ-55555555333333335555555577777777------------------------|


Outro:


G---------------------------------------------------------|
D---------------------------------------------------------|
AŚ-5------------------------------------------------------|
E-------1-----3-------5---------3---------1---------------|


G---------------------------------------------------------|
D---------------------------------------------------------|
AŚ-5------------------------------------------------------|
E-------1-----3------x5--------x3--------x1---------------|

Intro: X1


G-----------------------------------------------------------|
D-----------------------------------------------------------|
A--------------------------555------------------------------|
EŚ111-1-1/3/5-55-111-1-1/33---111-1-1/3/5-55-111-1-1/33-333-|

Chorus: X2


G----------------------------------------------------------|
D----------------------------------------------------------|
A----------------------------------------------------------|
EŚ-55555555333333335555555511111111------------------------|


G----------------------------------------------------------|
D----------------------------------------------------------|
A----------------------------------------------------------|
EŚ-55555555333333335555555577777777------------------------|

Outro:


G---------------------------------------------------------|
D---------------------------------------------------------|
AŚ-5------------------------------------------------------|
E-------1-----3-------------------------------------------|


thank you!! have fun. most of the hammerons and stuff you might need to work a lil bit 
cause im not sure if they're right or not. but its a start. so ya know, yeha