Norah Jones - Come Away With Me Chords & Tabs

 

Come Away With Me Chords & Tabs

Norah Jones Chords & Tabs

Version: 2 Type: Bass Tab

Come Away With Me Bass Tab

-------------------------------------------------------------------------------
			     COME AWAY WITH ME  Norah Jones
-------------------------------------------------------------------------------

Tabbed By :Oscar 
e-mail: Oscarlyons+1@gmail.com

Tuning:Standard

This song's done on a double bass, so it sounds better when you play the C
on the E string at the 8th fret, but for ease of playing, I've put some of
them on the A string.
It's the Come Away With Me album version, some of the other recordings are
slightly different, so hopefully any problems aren't with the tab.

G|------------|------------|------------|------------|
D|------------|------------|------------|------------|
A|------------|------------|------------|------------|
E|8-----5-----|8-----5-----|8-----5-----|8-----5-----|

Come away with me...
G|------------|------------|------------|------------|
D|------------|------------|------------|------------|
A|------------|------------|------------|------------|
E|8-----5-----|8-----5-----|8-----5-----|0-----1-----|
 
G|------------|------------|------------|------------|------------|
D|------------|------------|------------|------------|------------|
A|3-----------|3-----------|------------|------------|------------|
E|-----03-----|------5-----|8-----5-----|8-----5---5-|0-----1-----|
[ Tab from: https://www.guitartabs.cc/tabs/n/norah_jones/come_away_with_me_btab_ver_2.html ]
G|------------|------------|------------|------------|------------|
D|------------|------------|------------|------------|------------|
A|3-----3---35|------------|3-----3---35|------------|3-----------|
E|------------|3-----1-----|------------|3-----1-----|------------|

G|------------|------------|------------|------------|------------|
D|------------|------------|------------|------------|------------|
A|3-----------|------------|------------|-----------5|3--3------2-|
E|------5-----|8-----5-----|8---8-5---5-|0---0-1---1-|-----13-5---|

Guitar Solo
G|------------|------------|------------|------------|------------|
D|------------|------------|------------|------------|------------|
A|3-----------|------------|------------|-----------0|3---3-------|
E|------5-----|8-----5-----|8-----5---5-|0---0-1---1-|-----03---3-|

G|------------|------------|-------------|----------------|------------|------------|
D|------------|------------|-------------|----------------|------------|------------|
A|3-----------|-----7------|-------------|----------------|------------|------------|
E|------5-----|8-----5-----|8-----5-8-10-|12---12-13---130|8-----8---80|3-----1-----|

G|------------|------------|------------|------------|
D|------------|------------|------------|------------|
A|3-----3---3-|------------|3-----------|3-----------|
E|-----------0|3-----1-----|------------|------5-----|

G|------------|------------|------------|------------|
D|------------|------------|------------|------------|
A|------------|3-----------|--3---------|------------|
E|8-----5-----|------3-----|------------|------------|


===============================================================================