Non Servium - Punks And Skins Chords & Tabs

 

Punks And Skins Chords & Tabs

Non Servium Chords & Tabs

Version: 1 Type: Bass Tab

Punks And Skins Bass Tab

Intro:

|---------------------------------------------------------|
|---------------------------------------------------------|
|--5---5555---5555---555-878--5---5555---555--------------|
|--------------------------------------------6---666-858--|     x13

|---------------------------------------------------------|
|---------------------------------------------------------|
|--5------------------------------------------------------|
|---------------------------------------------------------|

|--------------------------------------------------------------------|
|--------------------------------------------------------------------|
|--5-555-555-555-3-5-555-555-555-7-8-888-888-888-7----------3-33-8-7-|
|--------------------------------------------------5-555-55----------| x2

Verse 1:

|--------------------------------------------------------------------|
|--------------------------------------------------------------------|
|5-55555-5-55555-5-55555-5-55555-78-888888-1010101010-888888-777-----|
|--------------------------------------------------------------------|

|---------------------------------------------------------------------|
|------------------------2222-3333---------------------------3333-2222|
|3-33333-3-33333-5-55555-----------------------------3-33333----------|
|----------------------------------6-666666-6-666666------------------| x2

Verse 2:
[ Tab from: https://www.guitartabs.cc/tabs/n/non_servium/punks_and_skins_btab.html ]
|-----------------------------------------------------------------------|
|------------------------------------------------22233--------------3322|
|5-55555-5-5555-78888888-10101088877-3-33333-555----------------333-----|
|------------------------------------------------------6-666666---------|x2

Verse 3:

|------------------------------------------------------------------------|
|--------------------------------------------------22233------------33322|
|5-5-555-55555-78-88888-101010-888-77-3-3-333-5555---------------333-----|
|--------------------------------------------------------6-6-666---------|x3

Verse 1:

|--------------------------------------------------------------------|
|--------------------------------------------------------------------|
|5-55555-5-55555-5-55555-5-55555-78-888888-1010101010-888888-777-----|
|--------------------------------------------------------------------|

|---------------------------------------------------------------------|
|------------------------2222-3333---------------------------3333-2222|
|3-33333-3-33333-5-55555-----------------------------3-33333----------|
|----------------------------------6-666666-6-666666------------------|

Outro:

|-------------------------------------------------------------|
|----------------23------32----------------23------32---------|
|5---578---873--------3----5---578---873--------3----5--------|
|------------------6-------------------------6----------------|




                                                                          LÚ
                                                 lopunkettone_bmx@hotmail.it