Nofx - Murder The Government Chords & Tabs

 

Murder The Government Chords & Tabs

Nofx Chords & Tabs

Version: 2 Type: Tab

Murder The Government Tab

   
Band: NOFX
Song: Murder The Government
Album: So Long And Thanks For All The Shoes

by titoNoFX - titonofx@gmail.com
date: 22/11/05

~ = let ring
bup = bend up
bdn = bend down

Guitar N1
   B              G#m             E               F#
e|-2~--------------4~-------------0------------------------------2-|
B|-4~--------------4~-------------0---------------------------2----|
G|-4~--------------4~-------------1------------------------3-------|
D|-4~--------------6~-------------2---------------------4----------|
A|-2~--------------6~-------------2------------------4-------------|
E|-----------------4~-------------0---------------2----------------|

   | . . . . . . . | . . . . . . . | . . . . . . . | . . . . . . .
e|-----------------------------------------------------------------|
B|-----------------------------------------------------------------|
G|-4-4-444-4-44-44-------------------------------------------------|
D|-4-4-444-4-44-44-6-6-666-6-66-66-2-2-222-2-22-22-4-4-444-4-44-44-|
A|-2-2-222-2-22-22-6-6-666-6-66-66-2-2-222-2-22-22-4-4-444-4-44-44-|
E|-----------------4-4-444-4-44-44-0-0-000-0-00-00-2-2-222-2-22-22-|

   | . . . . . . . | . . . . . . . | . . . . . . . | . . . . . . .
e|-----------------------------------------------------------------|
B|-----------------------------------------------------------------|
G|-4-4-444-4-44-44-------------------------------------------------|
D|-4-4-444-4-44-44-6-6-666-6-66-66-2-2-222-2-22-22-4~--------------|
A|-2-2-222-2-22-22-6-6-666-6-66-66-2-2-222-2-22-22-4~--------------|
E|-----------------4-4-444-4-44-44-0-0-000-0-00-00-2~--------------|

   | . . . . . . . | . . . . . . . | . . . . . . . | . . . . . . .
e|-----------------------------------------------------------------|
B|-----------------------------------------------------------------|
G|-4-4-444-4-44-44-------------------------------------------------|
D|-4-4-444-4-44-44-6-6-666-6-66-66-2-2-222-2-22-22-4~--------------|
A|-2-2-222-2-22-22-6-6-666-6-66-66-2-2-222-2-22-22-4~--------------|
E|-----------------4-4-444-4-44-44-0-0-000-0-00-00-2~--------------|
[ Tab from: https://www.guitartabs.cc/tabs/n/nofx/murder_the_government_tab_ver_2.html ]
   | . . . . . . . 
e|--------------------------5--5-----------------------------------|
B|-----------------------4-----4-----------------------------------|
G|-4~--------------------2-----2-----------------------------------|
D|-4~-----------------4--------4-----------------------------------|
A|-2~--------------2-----------2-----------------------------------|
E|-----------------------------------------------------------------|

Guitar N2
   | . . . . . . . | . . . . . . . | . . . . . . . | . . . . . . .
e|-----------------------------------------------------------------|
B|-----------------------------------------------------------------|
G|-4-4-444-4-44-44-----------------9-9-999-9-99-99-1111111111111111|-->this is F#, but 
D|-4-4-444-4-44-44-6-6-666-6-66-66-9-9-999-9-99-99-1111111111111111|   there isn't space
A|-2-2-222-2-22-22-6-6-666-6-66-66-7-7-777-7-77-77-9-9-999-9-99-99-|   for the '11's xD
E|-----------------4-4-444-4-44-44---------------------------------|

   | . . . . . . . | . . . . . . . | . . . . . . . | . . . . . . .
e|-----------------------------------------------------------------|
B|-----------------------------------------------------------------|
G|-4-4-444-4-44-44-----------------9-9-999-9-99-99-11~-------------|
D|-4-4-444-4-44-44-6-6-666-6-66-66-9-9-999-9-99-99-11~-------------|
A|-2-2-222-2-22-22-6-6-666-6-66-66-7-7-777-7-77-77-9~--------------|
E|-----------------4-4-444-4-44-44---------------------------------|

   | . . . . . . . | . . . . . . . | . . . . . . . | . . . . . . .
e|-----------------------------------------------------------------|
B|-----------------------------------------------------------------|
G|-4-4-444-4-44-44-----------------9-9-999-9-99-99-11~-------------|
D|-4-4-444-4-44-44-6-6-666-6-66-66-9-9-999-9-99-99-11~-------------|
A|-2-2-222-2-22-22-6-6-666-6-66-66-7-7-777-7-77-77-9~--------------|
E|-----------------4-4-444-4-44-44---------------------------------|

   | . . . . . . . 
e|-----------------------------5-----------------------------------|
B|-----------------------------4-----------------------------------|
G|-4~--------------------------2-----------------------------------|
D|-4~--------4--4bup/bdn--2----4-----------------------------------|
A|-2~--------------------------2-----------------------------------|
E|-----------------------------------------------------------------|