Nobuo Uematsu - Martial Law Chords & Tabs

 

Martial Law Chords & Tabs

Nobuo Uematsu Chords & Tabs

Version: 1 Type: Bass Tab

Martial Law Bass Tab

-------------------------------------------------------------------------------
			     Martial Law - Nobuo Uematsu
-------------------------------------------------------------------------------

Hey guys. This is quite an easy but fun song I figured out today. 

Itís the song playing when you are in Dollet in FF8 ;)

Some great bass riffs in there lol Listen to the song for the timing :)

Tuning: Standard

G|---------------------------------------------------------------------------|
D|--5--5---5-------0---5--5---5------3--4--5--5---5-------5--5----5----------|
A|-----------------------------------------------------8---------------------|
E|---------------------------------------------------------------------------|
[ Tab from: https://www.guitartabs.cc/tabs/n/nobuo_uematsu/martial_law_btab.html ]
G|-------2--0--0----0--------------------------------------------------------|
D|-0--3----------------------------------------------------------------------|
A|---------------------------------------------------------------------------|
E|---------------------------------------------------------------------------|

These riffs repeat a few times throughout the song, then the variations
come in at the key change

G|--------------0--0---0--------0-0---0--------------------------------------|
D|-0--3--0---0---------------0---------------0-------------------------------|
A|---------------------------------------------------------------------------|
E|---------------------------------------------------------------------------|

Play around with those then it comes to the high and fun bit

G|---------------7--5----3-------0----0---------|
D|--0--5--5--5-------------3--------------------|
A|----------------------------------------------|
E|----------------------------------------------|


G|-12--12--10------10---------------------------|
D|-------------12-------------------------------|
A|---------------------10--10-----10--10--------|
E|----------------------------------------------|

Fool around with that for a bit then the whole song repeats. Itís a great track 
To jam to with the band lol

Cheers :)