Nobuo Uematsu - Black Water Chords & Tabs

 

Black Water Chords & Tabs

Nobuo Uematsu Chords & Tabs

Version: 1 Type: Bass Tab

Black Water Bass Tab

Black Water

Intro [0:05]
G|----------------------------------------------------------------------------|
D|----------------------------------------------------------------------------|
A|----------------------------------------------------------------------------|
E|--2-0-0-2-0-0-2-0--4-0-0-4-0-0-4-0--3-0-0-3-0-0-3-0--2-0-0-2-0-0-2-0--------|

G|----------------------------------------------------------------------------|
D|----------------------------------------------------------------------------|
A|----------------------------------------------------------------------------|
E|--2-0-0-2-0-0-2-0--4-0-0-4-0-0-4-0--3-0-0-3-0-0-3-02*----------------------|

Main Riff [0:29]
G|-----------------------|----|-----------------------|----|-----------------------|----|
D|-----------------------|-x2-|-----------------------|-x2-|-----------------------|-x2-|
A|-----------------------|----|-----------------------|----|-----------------------|----|
E|--3-2-3--3-3p2--3-2-3--|----|--4-3-4--4-4p3--4-3-4--|----|--3-2-3--3-3p2--3-2-3--|----|

Interlude [1:01]
G|----------------|
D|----------------|
A|----------------|
E|--T.B.C.--------|

Intro Variation [1:23]
G|----------------------------------------------------------------------------|
D|----------------------------------------------------------------------------|
A|----------------------------------------------------------------------------|
E|--3-0-0-3-0-0-3-0--5-0-0-5-0-0-5-0--4-0-0-4-0-0-4-0--3-0-0-3-0-0-3-0--------|
[ Tab from: https://www.guitartabs.cc/tabs/n/nobuo_uematsu/black_water_btab.html ]
G|----------------------------------------------------------------------------|
D|----------------------------------------------------------------------------|
A|----------------------------------------------------------------------------|
E|--3-0-0-3-0-0-3-0--5-0-0-5-0-0-5-0--4-0-0-4-0-0-4-03*----------------------|

G|----------------------------------------------------------------------------|
D|----------------------------------------------------------------------------|
A|----------------------------------------------------------------------------|
E|--3-0-0-3-0-0-3-0--5-0-0-5-0-0-5-0--4-0-0-4-0-0-4-0--3-0-0-3-0-0-3-0--------|

G|----------------------------------------------------------------------------|
D|----------------------------------------------------------------------------|
A|----------------------------------------------------------------------------|
E|--3-0-0-3-0-0-3-0--5-0-0-5-0-0-5-0--6-0-0-6-0-0-6-0--7-0-0-7-0-0-7-0--------|

Interlude 2 [2:06]
G|----------------------------|
D|----------------------------| x1
A|----------------------------|
E|--0-0-4p3--0-0-3p2--0-0-4p3-|

Drum Fill

G|-----------------------------|
D|-----------------------------| x1
A|-----------------------------|
E|--0-0-4p3--0-0-3p2--0-0-2p0--|

Main Riff [2:16]
G|-----------------------|----|-----------------------|----|
D|-----------------------|-x2-|-----------------------|-x2-|
A|-----------------------|----|-----------------------|----|
E|--3-2-3--3-3p2--3-2-3--|----|--4-3-4--4-4p3--4-3-4--|----|

If you're got any complaints, criticisms or better yet changes of the tab here's my 
hell_crazed_sadist_4_hire@hotmail.com