No Cash - Gasoline Chords & Tabs

 

Gasoline Chords & Tabs

No Cash Chords & Tabs

Version: 1 Type: Tab

Gasoline Tab

   
Gasoline - No Cash

Tuning: Standard (e B G D A e)

x - dead note 
(n) - ghost note
> - accentuated note 
h - hammer on
p - pull off
^ - bend 
/ - slide  
~ - vibrato
.  Palm Mute

Intro - Guitar 1
e|-------------------------------------------------------------------|
B|-------------------------------------------------------------------|
G|-------------6-7-------------7-6----------6---7-----------7-6------|
D|-----------7-----99999999--7-----44444444---7---55555555------7----|
A|-55555555----------------------------------------------------------|
E|-------------------------------------------------------------------|
[ Tab from: https://www.guitartabs.cc/tabs/n/no_cash/gasoline_tab.html ]
Intro - Guitar 2
e|-----------------------------------------------------------------|
B|-----------------------------------------------------------------|
G|-----------------------------------------------------------------|
D|-7777777--------44444444-----------------------------------------|
A|-5555555--------22222222--------44444444--------55555555---------|
E|--------------------------------22222222--------33333333---------|

VERSE: SAME AS INTRO, JUST PALM MUTED.

Chorus - Guitar 1&2
e|----------------------------------------|
B|--------------7-------------------------|
G|----7----9----7----4--------------------|
D|----7----9----5----4--------------------|
A|----5----7---------2--(Random octaves)--|
E|----------------------------------------|

-END-

Question, comments or improvements? crackcityrockers@gmail.com