Nine Inch Nails - Bite The Hand That Feeds Chords & Tabs

 

Bite The Hand That Feeds Chords & Tabs

Nine Inch Nails Chords & Tabs

Version: 1 Type: Bass Tab

Bite The Hand That Feeds Bass Tab

Thereís a little synth thing that goes on till
0:15)then
G|------------------------------------------------------------------------------|
D|------------------------------------------------------------------------------|
A|------------------------------------------------------------------------------|
E|--5-5-3-5-8--3-5-5-3-5-8--3-5-5-3-5-8--3-5-5-3-5-8--3-5-5-3-5-8--3-5-5-3-5-8--|

G|----------------------------------------------------------------------------|
D|----------------------------------------------------------------------------|
A|----------------------------------------------55555555555-------------------|
E|--3-5-5-3-5-8--3-5-5-3-5-8--3--1111111111111---------------5-5-3-5-8--------|

G|------------------------------------------------------------------------------|
D|------------------------------------------------------------------------------|
A|------------------------------------------------------------------------------|
E|---3-5-5-3-5-8--3-5-5-3-5-8--3-5-5-3-5-8--3--11111111111---2222222222--3333-3-|

G|-------------------------------------------------------------------------------|
D|-------------------------------------------------------------------------------|
A|-------------------------------------------------------------------------------|
E|--5-5-3-5-8--3-5-5-3-5-8--3-5-5-3-5-8--3-5-5-3-5-8--3-5-5-3-5-8--3-5-5-3-5-8---|

G|--------------------------------------------------------------------------------|
D|--------------------------------------------------------------------------------|
A|--------------------------------------------------------------------------------|
E|--3-5-5-3-5-8--3-5-5-3-5-8--3-5-5-3-5-8--3-5-5-3-5-8--3-5-5-3-5-8--3-5-5-3-5-8--|
(1:15)
G|------------------------------------------------------------------------------|
D|------------------------------------------------------------------------------|
A|-----------------55555555555--------------------------------------------------|
E|--3--1111111111--------------5-5-3-5-8--3-5-5-3-5-8--3-5-5-3-5-8--3-5-5-3-5-8-|
                                                     (
Rest while another synth thing happens from 1:38 to 2:07)
2:07
G|----------------------------------------------------------|
D|----------------------------------------------------------|
A|----------------------------------------------------------|
E|--3-111111111--22222222---3333--3-------------------------|
[ Tab from: https://www.guitartabs.cc/tabs/n/nine_inch_nails/bite_the_hand_that_feeds_btab.html ]
G|---------------------------------------------------------------------------------|
D|---------------------------------------------------------------------------------|
A|--------------55555555555--------------------------------------------------------|
E|--1111111111----------------5-5-3-5-8--3-5-5-3-5-8--3-5-5-3-5-8--3-5-5-3-5-8-----|

G|----------------------------------------------------------|
D|----------------------------------------------------------|
A|----------------------------------------------------------|
E|--3-111111111--22222222---3333--3-------------------------|
(2:30)
G|----------------------------------------------------------|
D|----------------------------------------------------------|
A|----------------------------------------------------------|
E|---5-5-3-5-8--3-5-5-3-5-8--3-5-5-3-5-8--3-5-5-3-5-8-------|

G|---------------------------------------------------------|
D|---------------------------------------------------------|
A|---------------------------------------------------------|
E|---3-5-5-3-5-8--3-5-5-3-5-8--3-5-5-3-5-8--3-5-5-3-5-8----|

G|---------------------------------------------------------|
D|---------------------------------------------------------|
A|---------------------------------------------------------|
E|---3-5-5-3-5-8--3-5-5-3-5-8--3-5-5-3-5-8--3-5-5-3-5-8----|

G|---------------------------------------------------------|
D|---------------------------------------------------------|
A|---------------------------------------------------------|
E|---3-5-5-3-5-8--3-5-5-3-5-8--3-5-5-3-5-8--3-5-5-3-5-8----|

G|----------------------------------------------------------|
D|----------------------------------------------------------|
A|----------------------------------------------------------|
E|---5-5-3-5-8--3-5-5-3-5-8--3-5-5-3-5-8--3-5-5-3-5-8-------|

G|---------------------------------------------------------|
D|---------------------------------------------------------|
A|---------------------------------------------------------|
E|---3-5-5-3-5-8--3-5-5-3-5-8--3-5-5-3-5-8--3-5-5-3-5-8----|
G|---------------------------------------------------------|
D|---------------------------------------------------------|
A|---------------------------------------------------------|
E|---3-5-5-3-5-8--3-5-5-3-5-8--3-5-5-3-5-8--3-5-5-3-5-8----|

G|---------------------------------------------------------|
D|---------------------------------------------------------|
A|---------------------------------------------------------|
E|---3-5-5-3-5-8--3-5-5-3-5-8--3-5-5-3-5-8--3-5-5-3-5-8----|
 There and also itís called the hand that feeds.
Without the bite

Have fun

PEACE