Nickelback - Someone That Youre With Chords & Tabs

 

Someone That Youre With Chords & Tabs

Nickelback Chords & Tabs

Version: 2 Type: Bass Tab

Someone That Youre With Bass Tab

This is my first submission, so I might have done some misses. Do let me know if there is any.
I have experimented a bit with the pre-chorus. Check at the end of this tab and 
tell me if it sounds too ridiculous.

Artist: Nickelback
Song: Someone That You're With
Album: All the Right Reasons

Tuning: Drop D


Playing order:
-Wait 32 fourths
-Verse
-Pre chorus
-Chorus	x2
-Post chorus
-Wait 32 fourths
-Verse
-Chorus x2
-Post chorus
-Wait 32 fourths
-Chorus
-Last post chorus


Verse
G|-----------------|-----------------|-----------------|-----------------|
D|-----------------|-----------------|-----------------|-----------------|
A|-----------------|-----------------|-----------------|-----------------|
D|-3-0-0---3-0-0---|-3-0-0---3-0-0---|-0-5-5---3-5-5---|-3-5-5---3-5-5---|

G|-----------------|-----------------|-----------------|-----------------|
D|-----------------|-----------------|-----------------|-----------------|
A|-----------------|-----------------|-----------------|-----------------|
D|-5-3-3--5-3-3---|-3-5-5---3-5-5---|-5-0-0---3-0-0---|-3-0-0---3-0-0---|


Pre chorus
G|-----------------|-----------------|-----------------|-----------------|
D|-----------------|-----------------|-----------------|-----------------|
A|-----------------|-----------------|-----------------|-----------------|
D|-0-8-8---8-8-8---|-8-8-8---8-8-8---|-5-5-5---5-5-5---|-5-5-5---5-5-5---|

G|-----------------|-----------------|-----------------|-----------------|
D|-----------------|-----------------|-----------------|-----------------|
A|-----------------|-----------------|-3-3-3---3-3-3---|-----------------|
D|-3-3-3---3-3-3---|-3-3-3---3-3-3---|-----------------|-3-3-3-3-3-3-3-3-|


Chorus
G|-----------------|-----------------|-----------------|-----------------|
D|-----------------|-----------------|-----------------|-----------------|
A|-----------------|-----------------|-----------------|-----------------|
D|-0-0-0-0-0-0-0-0-|-0-0-0-0-0-0-0-0-|-5-5-5-5-5-5-5-5-|-5-5-5-5-5-5-5-5-|

G|-----------------|-----------------|-----------------|-----------------|
D|-----------------|-----------------|-----------------|-----------------|
A|-3-3-3-3-3-3-3-3-|-----------------|-----------------|-----------------|
D|-----------------|-5-5-5-5-5-5-5-5-|-0-0-0-0-0-0-0-0-|-0-0-0-0-0-0-0-0-|

[ Tab from: https://www.guitartabs.cc/tabs/n/nickelback/someone_that_youre_with_btab_ver_2.html ]
Post chorus
G|-----------------|-----------------|-----------------|-----------------|
D|-----------------|-----------------|-----------------|-----------------|
A|-----------------|-----------------|-----------------|-----------------|
D|-3-3-3-3-3-3-3-3-|-5-5-5-5-5-5-5-5-|-3-0-0---3-0-0---|-3-0-0---3-0-0---| x2

G|-----------------|-----------------|-----------------|-----------------|
D|-----------------|-----------------|-----------------|-----------------|
A|-1-1-1-1-1-1-1-1-|-3-3-3-3-3-3-3-3-|-----------------|-----------------|
D|-----------------|-----------------|-3-3-3-3-3-3-3-3-|-5-5-5-5-5-5-5-5-|

G|-----------------|-----------------|-----------------|-----------------|
D|-----------------|-----------------|-----------------|-----------------|
A|-1-1-1-1-1-1-1-1-|-3~--------------|---5-5---5-5-5---|-5-5-5---5-5-5---|
D|-----------------|-----------------|-----------------|-----------------|


Last post chorus
G|-----------------|-----------------|-----------------|-----------------|
D|-----------------|-----------------|-----------------|-----------------|
A|-----------------|-----------------|-----------------|-----------------|
D|-3-3-3-3-3-3-3-3-|-5-5-5-5-5-5-5-5-|-3-0-0---3-0-0---|-3-0-0---3-0-0---| x2

G|-----------------|-----------------|-----------------|-----------------|
D|-----------------|-----------------|-----------------|-----------------|
A|-1-1-1-1-1-1-1-1-|-3-3-3-3-3-3-3-3-|-----------------|-----------------|
D|-----------------|-----------------|-3-3-3-3-3-3-3-3-|-5-5-5-5-5-5-5-5-| x2

G|-----------------|-----------------|-----------------|-----------------|
D|-----------------|-----------------|-----------------|-----------------|
A|-1-1-1-1-1-1-1-1-|-3-3-3-3-3-3-3-3-|-5~--------------|-----------------|
D|-----------------|-----------------|-----------------|-----------------|







Experimental version of the pre chorus. This is what I think it sounds like:
G|-----------------|-----------------|-----------------|-----------------|
D|-----------------|-----------------|-----------------|-----------------|
A|-----------------|---------------3-|-----------------|---------------0-|
D|-0-8-8---8-8-8---|-8-8-8---8-6-8---|-5-5-5---5-5-5---|-5-5-5---5-3-5---|

G|-----------------|-----------------|-----------------|-----------------|
D|-----------------|-----------------|-----------------|-----------------|
A|-----------------|-------------0-1-|-3-3-3---3-3-3---|-----------------|
D|-3-3-3---3-3-3---|-3-3-3---3-1-----|-----------------|-3-3-3-3-3-3-3-3-|