Nickelback - Fight For All The Wrong Reasons Chords & Tabs

 

Fight For All The Wrong Reasons Chords & Tabs

Nickelback Chords & Tabs

Version: 3 Type: Tab

Fight For All The Wrong Reasons Tab

   
Artist:Nickelback
Song: Fight For All The Wrong Reasons
Album: All The Right Reasons
Track: 2

Tuning: Drop  C (C G C F A D from low to high)


Palm Muted: *
Slide Up:      \
Slide Down: /


Intro - Play 2x
D|---------------------------------------------------------------|
A|-3-------------------------------------------------------------|
F|-2-------------------------------------------------------------|
C|-0--0003\----------3------5555-5-5--10\--3-5-3-5/6\5-3--------|
G|-0--0003\--3-5-3-5---5-3--5555-5-5--10\--3-5-3-5/6\5-3--------|
C|-0--0003\-----------------5555-5-5--10\--3-5-3-5/6\5-3--------|
              * * * *             * *

Verse:

Something with Flanger and plam muted
(Im not sure about this part, sorry, just improve something

D|----------------------------------------------------------|
A|-----------10-10-13-13-13-10-------10-8-10-8-6-8-6-4------|
F|--13-13-13-------------------13-10------------------------|
C|----------------------------------------------------------|
G|----------------------------------------------------------|
C|----------------------------------------------------------|

Then at the ending:

D|------------------------------------| repet sometimes
A|------------------------------------|
F|------------------------------------|
C|----------1--------------1----------|
G|--3-3-3-3---3-1-3-3-3-3----3-1------|
C|------------------------------------|
    * * * *       * * * *
[ Tab from: https://www.guitartabs.cc/tabs/n/nickelback/fight_for_all_the_wrong_reasons_tab_ver_3.html ]
Right before Chorus
D|-------------------------|
A|-------------------------|
F|-------------------------|
C|---0-0--0-0--0-0--0-0----|
G|---0-0--0-0--0-0--0-0----|
C|---0-0--0-0--0-0--0-0----|


Chorus

D|---------------------------------------------------------------| 4x
A|-3-------------------------------------------------------------|
F|-2-------------------------------------------------------------|
C|-0--0003\----------3------5555-5-5--10\--3-5-3-5/6\5-3--------|
G|-0--0003\--3-5-3-5---5-3--5555-5-5--10\--3-5-3-5/6\5-3--------|
C|-0--0003\-----------------5555-5-5--10\--3-5-3-5/6\5-3--------|
              * * * *             * *

Bridge

D|--------------------------------------------------------------------------|
A|--3-3--3-3--8-8--8-8--3-3--3-3--8-8--8-8-----------3-3--3-3--8-8--8-8-----|
F|--2-2--2-2--7-7--7-7--2-2--2-2--7-7--7-7-----------2-2--2-2--7-7--7-7-----|
C|--0-0--0-0--5-5--5-5--0-0--0-0--5-5--5-5--0-2-3-5--0-0--0-0--5-5--5-5-----|
G|--0-0--0-0--5-5--5-5--0-0--0-0--5-5--5-5--0-2-3-5--0-0--0-0--5-5--5-5-----|
C|--0-0--0-0--5-5--5-5--0-0--0-0--5-5--5-5--0-2-3-5--0-0--0-0--5-5--5-5-----|


D|----------------------------------------| repet
A|----------------------------------------|
F|----------------------------------------| (Guitar 2 plays a variation
C|--0-2-3-5--0-2-3-5--0-2-3-5--0-0-7-5----|  of Verse part)
G|--0-2-3-5--0-2-3-5--0-2-3-5--0-0-7-5----|
C|--0-2-3-5--0-2-3-5--0-2-3-5--0-0-7-5----|


D|---------------------------------------------|
A|--3-3--3-3--8-8--8-8--3-3--3-3--8-8--8-8-----|
F|--2-2--2-2--7-7--7-7--2-2--2-2--7-7--7-7-----|
C|--0-0--0-0--5-5--5-5--0-0--0-0--5-5--5-5-----|
G|--0-0--0-0--5-5--5-5--0-0--0-0--5-5--5-5-----|
C|--0-0--0-0--5-5--5-5--0-0--0-0--5-5--5-5-----|