Newton Faulkner - All I Got Chords & Tabs

 

All I Got Chords & Tabs

Newton Faulkner Chords & Tabs

Version: 1 Type: Bass Tab

All I Got Bass Tab

You'll need a bass with a "filter" effect, or fixed wah? you basically want to create
normal sounding tones and really trebley wah sounds as well!

its easy to hear where there is wah and when there isnt, ive marked a couple. listen
for walks and fills

optional intro - actually played by newton on his acoustic - but if you want to play 
play quietly!

G|--------------5-5-6-6-6--5-5-5-----|
D|--3-3-4-4-6-6----------------------|
A|---4-4-4-4-4-4-4-4-4-4----4-4------|
E|-----------------------------------|

verse
G|-----------------    G|------------------|
D|-----------------    D|----------1/3-1---|
A|----3--4---4-----    A|----3--4-------4--|
E|-6--------4-4---- X5 E|-6----------------|

bridge
G|----------------------------------------------------------------------|
D|----3------/646---------------------------/64\------------------------|
A|---------4----------3--4--/86------------4---6~-----------------------|
E|-0h1-1--2--------6-----------9-0h13/1--2-----------/696\--------------|
               ^                thirteen               ^
             *WAH*                                   *WAH*

chorus
G|--------------------------------------|
D|---36----------------36-----66654-----|
A|-44---1----34----1344---1---------1-3-|
E|--------44----2-----------4-----------|

G|--------------------------------------|
D|---36----------------36---------------|
A|-44---1----34----1344---1---34----43--|
E|--------44----2-----------44----2-----|

verse
G|-----------------    G|----------------------------|
D|-----------------    D|----------------------------|
A|----3--4---4-----    A|----3--4--------------------|
E|-6--------4-4---- X3 E|-6----------/13-11-13-11----|
[ Tab from: https://www.guitartabs.cc/tabs/n/newton_faulkner/all_i_got_btab.html ]
bridge
G|------------------------------------------------------------------|
D|-----3-----/646\------------------3---------/64------/64----------|
A|----------4----------3--4--/86------------4-----6~------7424------|
E|-13/1-1--2--------6-----------98-1-1--2---------------------------|
               ^                                           ^
             *WAH*                                       *WAH*

chorus
G|--------------------------------------|
D|---36----------------36-----66654-----|
A|-44---1----34----1344---1---------6-8-|
E|--------44----2-----------4-----------|

G|--------------------------------------------|
D|---36------------------3456--/64------------|
A|-44---1----34----1344-4---------------------|
E|--------44----2-----------------------------|

quiet bit - optional, i reckon newton just plays this

G|--------------|
D|--------------|
A|--------------|
E|-4~--2~-------|

Lick into final chorus (watch timing!!) +WAH INNIT

G|----------|
D|--/646----|
A|------74--|
E|----------|

chorus
G|-------------------------------------|
D|-------------------------------------|
A|-44---1---------13-------------------|
E|-----------44-42---------------------| X2


G|---------------------------------------|
D|---36-----66654-2----------------------|
A|-44---1--------------------------------|
E|--------44-----------------------------|

G|--------------------------------------------------------|
D|---36-----------------678----/654-----36----------------|
A|-44---1----34----1344----84--------144------23----------|
E|--------44----2------------44-----------44------2-------|
                                  ^
                                *WAH*

G|---------------653-----------------------|
D|-----36----654---------------------------|
A|-1344--1------4-----3---4-------34~~~~~-|
E|--------4\2-----(6)--------4h6-----------|

This is pretty much the best I could get it. Any improvements? Not the easiest!
Cheerz, kp. x