My Favorite Highway - Closer Chords & Tabs

 

Closer Chords & Tabs

My Favorite Highway Chords & Tabs

Version: 1 Type: Tab

Closer Tab

Band: My Favorite Highway
Bands Website:  http://www.myfavoritehighway.com/
Song: Closer
Album: Anywhere But Here

Tuning: Standard

Tabber: Damas

This is my 1st tab... and im not a guitar legend, but I tried hard, so hope you'll enjoy 
maybe the pattern its not perfect, but the chords work perfectly... I'll figured out 
2nd guitar soon :)
enjoy it.


Intro

e:----------------::
B:----------------::
G:------------555-::
D:--333-7-555-555-::
A:--333-7-555-333-::
E:--111-5-333-----::x4

1st Verse

"Well I've been playing it back in my head"...

e:-------------------::
B:-------------------::
G:--------------5555-::
D:--3333-77-555-5555-::
A:--3333-77-555-3333-::
E:--1111-55-333------::x2
pm  ииии ии иии ииии

Chorus

"I wanna say that we're getting closer every day"...

e:--------------------------::
B:--------------------------::
G:-------5~55---------------::
D:--3~33-5~55-5555-555/5555-::
A:--3~33-3~33-5555-555/5555-::
E:--1~11------3333-777/3333-::x2

After Chorus

e:----------------::
B:----------------::
G:------------555-::
D:--333-7-555-555-::
A:--333-7-555-333-::
E:--111-5-333-----::x2

2nd Verse

"They're handing me the numbers and figures, yeah"...
[ Tab from: https://www.guitartabs.cc/tabs/m/my_favorite_highway/closer_tab.html ]
e:-------------------::
B:-------------------::
G:--------------5555-::
D:--3333-77-555-5555-::
A:--3333-77-555-3333-::
E:--1111-55-333------::x4
pm  ииии ии иии ииии

Chorus

""I wanna say that we're getting closer every day"...

e:--------------------------::
B:--------------------------::
G:-------5~55---------------::
D:--3~33-5~55-5555-555/5555-::
A:--3~33-3~33-5555-555/5555-::
E:--1~11------3333-777/3333-::x2

e:---------------------------------------::
B:---------------------------------------::
G:-----------55555555---------------5555-::
D:--33333333-55555555-55555555-5555-5555-::
A:--33333333-33333333-55555555-5555-5555-::
E:--11111111----------33333333-7777-3333-::x2

Bridge

"I wanna say that we're getting closer every day"...

e:----------------::
B:----------------::
G:-----5~---------::
D:--3~-5~-5~/5-55-::
A:--3~-3~-5~/5-55-::
E:--1~----3~/7-33-::

"You know you can't stop when you're racing the clock, c'mon"...


e:---------------------------------------::
B:---------------------------------------::
G:-----------55555555---------------5555-::
D:--33333333-55555555-55555555-5555-5555-::
A:--33333333-33333333-55555555-5555-5555-::
E:--11111111----------33333333-7777-3333-::x3

End

e:----------------::
B:----------------::
G:------------555-::
D:--333-7-555-555-::
A:--333-7-555-333-::
E:--111-5-333-----::x4

comments: damas.nd@gmail.com