Mxpx - Barbie Girl Chords & Tabs

 

Barbie Girl Chords & Tabs

Mxpx Chords & Tabs

Version: 2 Type: Bass Tab

Barbie Girl Bass Tab

   
Barbie Girl  MxPx

Tabbed by: Jay Ray
Every tab I found for this song was the same. Crap. Needed to make a good one.

G: |--------|
D: |-r-e-s-t|
A: |--------|
E: |--------|

G: |--------|--------|--------|--------|
D: |--------|--------|--------|--------|
A: |1~~~~~~~|--------|--------|4~~~3~~~|
E: |--------|2~~~~~~~|4~~~~~~~|--------|  x6

G: |--------|
D: |--------|
A: |1-------|
E: |--------|

G: |--------|--------|--------|--------|
D: |--------|--------|--------|--------|
A: |11111111|--------|--------|44443333|
E: |--------|22222222|44444444|--------|  x4

G: |--------|--------|--------|--------|
D: |--------|--------|--------|--------|
A: |1~~~~~~~|--------|--------|4~~~3~~~|
E: |--------|2~~~~~~~|4~~4-44-|--------|

G: |--------|--------|--------|--------|
D: |--------|--------|--------|--------|
A: |11111111|--------|--------|44443333|
E: |--------|22222222|44444444|--------|

G: |--------|--------|--------|--------|
D: |--------|--------|--------|--------|
A: |11111111|--------|11111111|--------|
E: |--------|--------|--------|--------|

G: |--------|--------|--------|--------|
D: |--------|--------|--------|--------|
A: |11111111|--------|11111111|11111111|
E: |--------|----1//9|--------|--------|
[ Tab from: https://www.guitartabs.cc/tabs/m/mxpx/barbie_girl_btab_ver_2.html ]
G: |--------|--------|--------|--------|
D: |--------|--------|--------|--------|
A: |11111111|--------|44444444|--------|
E: |--------|22222222|--------|44444444|

G: |--------|--------|--------|--------|
D: |--------|--------|--------|--------|
A: |11111111|--------|---4-3-4|--------|
E: |--------|22222222|--------|---4-3-4|

G: |--------|--------|--------|--------|
D: |--------|--------|--------|--------|
A: |11111111|--------|44444444|--------|
E: |--------|22222222|--------|44444444|

G: |--------|--------|--------|--------|
D: |--------|--------|--------|--------|
A: |1-------|--------|4-------|4-4443-4|
E: |--------|--------|--------|--------|

Short rest

G: |--------|--------|--------|--------|
D: |--------|--------|--------|--------|
A: |11111111|--------|--------|44443333|
E: |--------|22222222|44444444|--------|  x2

G: |--------|--------|--------|--6---5-|
D: |--------|--------|--------|--------|
A: |11111111|--------|--------|4---3---|
E: |--------|22222222|44444444|--------|

G: |--------|--------|--------|--------|
D: |--------|--------|--------|--------|
A: |11111111|--------|--------|44443333|
E: |--------|22222222|44444444|--------|

G: |--------|--------|--------|--------|
D: |--------|--------|--------|--------|
A: |1-------|11111111|--------|4-------|
E: |--------|--------|22224444|--------|