Mute Math - Noticed Chords & Tabs

 

Noticed Chords & Tabs

Mute Math Chords & Tabs

Version: 1 Type: Tab

Noticed Tab

Album: Mute Math (2006)
Copyright  2006 Teleprompt Records

here it is 

Intro and Verse 1
[ Tab from: https://www.guitartabs.cc/tabs/m/mute_math/noticed_tab.html ]
e|----------------------------------------------------|
B|----------------------------------------------------|
G|----------------------------------------------------|
D|----------------------------------------------------|
A|--------8--6--8-----8--6--8----8--6--8----8-6-8-6---|
E|---6-4-----------4----------4----------4------------|

e|----------------------------------------------------|
B|----------------------------------------------------|
G|----------------------------------------------------|
D|----------------------------------------------------|
A|-------8--6--8----8--6--8----8--6--8----8--6--8-----|
E|--3/6----------6----------6----------6--------------|




God Bless. please comment and rate