Muse - Time Is Running Out Chords & Tabs

 

Time Is Running Out Chords & Tabs

Muse Chords & Tabs

Version: 7 Type: Bass Tab

Time Is Running Out Bass Tab

this is my first tab and i worked hard on it so i hope its good and helps you play the song =]



Intro/verse 1 part 1 x3
G|-----------------------|------------------------|------------------------|-----------------------|
D|-----------------------|------------------------|------------------------|-----------------------|
A|0--0--3--0--0--3--3--0-|-2--2--0-----5--5--6----|-------7--------7--7----|-------3--------5--5---|
E|-----------------------|------------------------|-0--0-----0--0--------0-|-1--1-----1--3--------3|

Verse 1 part 2 x2
G|-----------------------|------------------------|------------------------|-----------------------|
D|-----------------------|------------------------|------------------------|-----------------------|
A|0--0--3--0--0--3--3--0-|-2--2--0-----5--5--6----|-------7--------7--7----|-------3--------5--5---|
E|-----------------------|------------------------|-0--0-----0--0--------0-|-1--1-----1--3--------3|

Pre-chorus 1  
G|-----------------------|------------------------|------------------------|-----------------------|
D|-----------------------|------------------------|------------------------|-----------------------|
A|-----------------------|------------------------|------------------------|-----------------------|
E|1--1--1--1--1--1--1--1-|-3--3--3--3--3--3--3--3-|-5--5--5--5--5--5--5--5-|-3--3--3--3--3--3--3-3|

G|-----------------------|------------------------|------------------------|-----------------------|
D|-----------------------|------------------------|------------------------|-----------------------|
A|-----------------------|------------------------|------------------------|-3--3--3--3--3--3--3-3|
E|1--1--1--1--1--1--1--1-|-3--3--3--3--3--3--3--3-|-5--5--5--5--5--5--5--5-|-----------------------|

Chorus 1
G|-----------------------|------------------------|------------------------|-----------------------|
D|-----------------------|------------------------|------------------------|-----------------------|
A|-----------------------|------------------------|------------------------|-3--3--3--3--3--3--3-3|
E|1--1--1--1--1--1--1--1-|-3--3--3--3--3--3--3--3-|-5--5--5--5--5--5--5--5-|-----------------------|

G|-----------------------|------------------------|------------------------|-----------------------|
D|-----------------------|------------------------|------------------------|-----------------------|
A|-----------------------|------------------------|------------------------|-------3--------5--5---|
E|1--1--1--1--1--1--1--1-|-3--3--3--3--3--3--3--3-|-5--5--5--5--5--5--5--5-|-1--1-----1--3--------3|

Bass in guitar solo
G|-----------------------|------------------------|------------------------|-----------------------|
D|-----------------------|------------------------|------------------------|-----------------------|
A|0--0--3--0-------------|-2--2--0--2-------------|-------7----------------|-------3--------5--5---|
E|-----------------------|------------------------|-0--0-----0-------------|-1--1-----1--3--------3|

Verse 2 part 1 x2
G|-----------------------|------------------------|------------------------|-----------------------|
D|-----------------------|------------------------|------------------------|-----------------------|
A|0--0--3--0-------------|-2--2--0--2-------------|-------7----------------|-------3--------5--5---|
E|-----------------------|------------------------|-0--0-----0-------------|-1--1-----1--3--------3|

Verse 2 part 2 x1
G|-----------------------|------------------------|------------------------|-----------------------|
D|-----------------------|------------------------|------------------------|-----------------------|
A|0--0--3--0--0--3--3--0-|-2--2--0-----5--5--6----|-------7--------7--7----|-------3--------5--5---|
E|-----------------------|------------------------|-0--0-----0--0--------0-|-1--1-----1--3--------3|

Pre-chorus 2
G|-----------------------|------------------------|------------------------|-----------------------|
D|-----------------------|------------------------|------------------------|-----------------------|
A|-----------------------|------------------------|------------------------|-----------------------|
E|1--1--1--1--1--1--1--1-|-3--3--3--3--3--3--3--3-|-5--5--5--5--5--5--5--5-|-3--3--3--3--3--3--3-3|

G|-----------------------|------------------------|------------------------|-----------------------|
D|-----------------------|------------------------|------------------------|-----------------------|
A|-----------------------|------------------------|------------------------|-3--3--3--3--3--3--3-3|
E|1--1--1--1--1--1--1--1-|-3--3--3--3--3--3--3--3-|-5--5--5--5--5--5--5--5-|-----------------------|

Chorus 2
G|-----------------------|------------------------|------------------------|-----------------------|
D|-----------------------|------------------------|------------------------|-----------------------|
A|-----------------------|------------------------|------------------------|-3--3--3--3--3--3--3-3|
E|1--1--1--1--1--1--1--1-|-3--3--3--3--3--3--3--3-|-5--5--5--5--5--5--5--5-|-----------------------|
[ Tab from: https://www.guitartabs.cc/tabs/m/muse/time_is_running_out_btab_ver_7.html ]
G|-----------------------|------------------------|------------------------|-----------------------|
D|-----------------------|------------------------|------------------------|-----------------------|
A|-----------------------|------------------------|------------------------|-3--3--3--3--3--3--3-3|
E|1--1--1--1--1--1--1--1-|-3--3--3--3--3--3--3--3-|-5--5--5--5--5--5--5--5-|-----------------------|

Bridge 
G|-----------------------|------------------------|------------------------|-----------------------|
D|0--0--2--2--3--3--5--5-|-7--7--9--9--10-10-12-12|-0--0--2--2--3--3--5--5-|-7--7--9--9--10-10-1212|
A|-----------------------|------------------------|------------------------|-----------------------|
E|-----------------------|------------------------|------------------------|-----------------------|

G|-----------------------|------------------------|------------------------|-----------------------|
D|0--0--2--2--3--3--5--5-|-7--7--9--9--10-10-12-12|-2--2--2--2--2--2--2--2-|-2--2--2--2--2--2--2-2|
A|-----------------------|------------------------|------------------------|-----------------------|
E|-----------------------|------------------------|------------------------|-----------------------|

Verse 3 part 1 x2
G|-----------------------|------------------------|------------------------|-----------------------|
D|-----------------------|------------------------|------------------------|-----------------------|
A|0--0--3--0--0--3--3--0-|-2--2--0-----5--5--6----|-------7--------7--7----|-------3--------5--5---|
E|-----------------------|------------------------|-0--0-----0--0--------0-|-1--1-----1--3--------3|

Verse 3 part 2
G|-----------------------|------------------------|------------------------|-----------------------|
D|-----------------------|------------------------|------------------------|-----------------------|
A|0--0--3--0--0--3--3--0-|-2--2--0-----5--5--6----|-------7--------7--7----|-------3--------5--5---|
E|-----------------------|------------------------|-0--0-----0--0--------0-|-1--1-----1--3--------3|

G|-----------------------|------------------------|------------------------|-----------------------|
D|-----------------------|------------------------|------------------------|-----------------------|
A|0--0--3--0--0--3--3--0-|-2--2--0-----5--5--6----|-------7--------7--7----|-------3--------5--5---|
E|-----------------------|------------------------|-0--0-----0--0--------0-|-1--1-----1--3--------3|

Pre-chorus 2
G|-----------------------|------------------------|------------------------|-----------------------|
D|-----------------------|------------------------|------------------------|-----------------------|
A|-----------------------|------------------------|------------------------|-----------------------|
E|1--1--1--1--1--1--1--1-|-3--3--3--3--3--3--3--3-|-5--5--5--5--5--5--5--5-|-3--3--3--3--3--3--3-3|

G|-----------------------|------------------------|------------------------|-----------------------|
D|-----------------------|------------------------|------------------------|-----------------------|
A|-----------------------|------------------------|------------------------|-3--3--3--3--3--3--3-3|
E|1--1--1--1--1--1--1--1-|-3--3--3--3--3--3--3--3-|-5--5--5--5--5--5--5--5-|-----------------------|

Chorus 2
G|-----------------------|------------------------|------------------------|-----------------------|
D|-----------------------|------------------------|------------------------|-----------------------|
A|-----------------------|------------------------|------------------------|-3--3--3--3--3--3--3-3|
E|1--1--1--1--1--1--1--1-|-3--3--3--3--3--3--3--3-|-5--5--5--5--5--5--5--5-|-----------------------|

G|-----------------------|------------------------|------------------------|-----------------------|
D|-----------------------|------------------------|------------------------|-----------------------|
A|-----------------------|------------------------|------------------------|-3--3--3--3--3--3--3--3|
E|1--1--1--1--1--1--1--1-|-3--3--3--3--3--3--3--3-|-5--5--5--5--5--5--5--5-|-----------------------|

Bridge 
G|-----------------------|------------------------|------------------------|-----------------------|
D|0--0--2--2--3--3--5--5-|-7--7--9--9--10-10-12-12|-0--0--2--2--3--3--5--5-|-7--7--9--9--10-10-1212|
A|-----------------------|------------------------|------------------------|-----------------------|
E|-----------------------|------------------------|------------------------|-----------------------|

G|-----------------------|------------------------|------------------------|-----------------------|
D|0--0--2--2--3--3--5--5-|-7--7--9--9--10-10-12-12|-2--2--2--2--2--2--2--2-|-2--2--2--2--2--2--2--2|
A|-----------------------|------------------------|------------------------|-----------------------|
E|-----------------------|------------------------|------------------------|-----------------------|

Outro
G|-----------------------|------------------------|------------------------|-----------------------|
D|-----------------------|------------------------|------------------------|-----------------------|
A|0--0--3--0-------------|-0--0--3--0-------------|-0--0--3--0-------------|-0--0--3--0------------|
E|-----------------------|------------------------|-------------------3--4-|-----------------------