Moving Units - Melodrama Chords & Tabs

 

Melodrama Chords & Tabs

Moving Units Chords & Tabs

Version: 1 Type: Bass Tab

Melodrama Bass Tab

Song;Melodrama
Artisit:Moving Units
Album:Moving Units
Tabbed By:RobRomanos

Verse
G|------------------------------------------------------------|
D|------14--12----------14--12---------14--12----------12-----|
A|----------------------------------------------12-14---------|
E|---12-------------12--------------12------------------------|
[ Tab from: https://www.guitartabs.cc/tabs/m/moving_units/melodrama_btab.html ]
G|------------------------------------------------------------|
D|-------14--12----------14--12---------14--12----------12---|  
A|------------------------------------------------12--14------|
E|---12---------------12-------------12-----------------------|
 
Chorus
G|---14-14---14-14-----14-14------12--12---|
D|-----------------------------------------| 
A|-12-------12-------12---------10--10-----|
E|-----------------------------------------|

Break(Repeats Many Times)
G|-------------------------------------------------------------------------|
D|-------------------------------------------------------------------------| 
A|-------------------------------------12-10-11-12-10-11-12-10-11-12-10-11-|
E|-12-10-11-12-10-11-12-10-11-12-10-11-------------------------------------|

Break (The Next Part)
G|-----------------------------|
D|-------------------12--------|
A|--------12--10--------12--10-|
E|---12------------------------|

Outro
G|--------------------------------------------|
D|-----------------------------------------14-|
A|---12-12-12-12-12-12--14-14-14-14-14-14-----|
E|--------------------------------------------|