Mono - Lost Snow Chords & Tabs

 

Lost Snow Chords & Tabs

Mono Chords & Tabs

Version: 1 Type: Tab

Lost Snow Tab

This is my very first tab, and I've only been playing a little guitar for a year so 
some errors. But it sounds pretty allright i think. This is not the hole song, but the main 
that is played throughout the song.Proboably its not the right tone and im
not sure if the slides are 100% correct but you can experiment some yourself.
Listen for timing:)
1: and 2: is played after one another like this 1,2,1,2,1,2,1,2 and then 3 comes in at 
end before the song lifts!(which I have not tabbed)
Cheers for Norway
1:
e|------------------------------------------------------------|
b|------------------------------------------------------------|
g|---10-10s12-12s14------17--15--14---------------------------|
d|--------------------14--------------------------------------|
a|------------------------------------------------------------|
e|-----------------------------------------------------------|
2:
e|------------------------------------------------------------|
b|------------------------------------------------------------|
g|---10-10s12--12s14------------------------------------------|
d|--------------------14-14--15--15s17------------------------|
a|------------------------------------------------------------|
e|-----------------------------------------------------------|
3:
e|------------------------------------------------------------|
b|------------------------------------------------------------|
g|---10-10s12-12s14--14-14---15-15-15-15p14-------------------|
d|------------------------------------------------------------|
a|------------------------------------------------------------|
e|-----------------------------------------------------------|
[ Tab from: https://www.guitartabs.cc/tabs/m/mono/lost_snow_tab.html ]