Modest Mouse - Truckers Atlas Chords & Tabs

 

Truckers Atlas Chords & Tabs

Modest Mouse Chords & Tabs

Version: 2 Type: Tab

Truckers Atlas Tab

Verse

e---------|----------------------------------------------------|
B---------|------------------------------------4---------------|
G---------|-----------4----------------------------------------|
D---------|----------------------------------------------------|
A---------|--------------------------4--4-----------4/7--------|
E----12\0|---4--4------4-0-0-0--------------------------------|

(1st time only)

Pre-Chorus

listen to teh struming patterns in teh song ya can figure it out pretty easy
e|---------------|
B|---------------|
G|--9----6----4--|
D|--x----x----x--|
A|--7----4----2--|
E|---------------|
[ Tab from: https://www.guitartabs.cc/tabs/m/modest_mouse/truckers_atlas_tab_ver_2.html ]
Chorus
e----2-------------2---------------0-----0-------0--------0-------|
B------4------4------4------4--------4------4-------x---------4---|
G---------4--------------4----------------------------------------|
D-----------------------------------------------------------------|
A-----------------------------------------------------------------|
E-----------------------------------------------------------------|

2nd chorus
e--2p0-------2p0-------2p0------2p0-------2p0----------------------------|
B--------4-------------------4---------------------4-------2---4--2------|
G------------------4------------------4-----------------4-------------4--|
D------------------------------------------------------------------------|
A------------------------------------------------------------------------|
E------------------------------------------------------------------------|


outro
e---------------------------------------------------|
b---------------------------------------------------|
g---------------------------------------------------|
d---------------------------------------------------|
a-----------------------0p2^2^----------------------|
e--0-0-0h2p0h2p0------------------------------------|