Misfits - This Magic Moment Chords & Tabs

 

This Magic Moment Chords & Tabs

Misfits Chords & Tabs

Version: 1 Type: Bass Tab

This Magic Moment Bass Tab

This Magic Moment

Intro/verse
---------------------------------------------------|
---------------------------------------------------|
-333333333-----------------------------------------|
-----------555555555511111111111--33333333--------|
[ Tab from: https://www.guitartabs.cc/tabs/m/misfits/this_magic_moment_btab.html ]
Chorus
---------------------------------------------------------|
---------------------------------------------------------|
--3-3-3-3-3-3-3-3-3-3-3-3-3-3----------------------------|
-------------------------------5-5-5-5-5-5-5-5-5-5-5-5-5-|

-------------------------------------------|
-------------------------------------------|
-5-5-5-5-5-5-5-5-5-5-----------------------|
--------------------3-3-3-3-3-3-3-3--------|