Misfits - Latest Flame Chords & Tabs

 

Latest Flame Chords & Tabs

Misfits Chords & Tabs

Version: 2 Type: Bass Tab

Latest Flame Bass Tab

Latest Flame

Main Part
------------------------------|
------------------------------|
------------------------------|
--6-6-6-6-63-36-6-6-6-63-3-|
[ Tab from: https://www.guitartabs.cc/tabs/m/misfits/latest_flame_btab_ver_2.html ]
Variation
---------------------------------|
---------------------------------|
---------------------------------|
-6-6-6-6-3-3-3-3-6-6-6-6-3-3-3-3-|

Chorus
---------------------------------|
---------------------------------|
-------------6-6-6-6-68-8-8-8-8-|
--6-6-6-6-6----------------------|

Outro
------------------------------------|
------------------------------------|
-----------------6-6-6-6-8-8-8-8----|
-6-6-6-6-6-3-3-3------------------6-|