Misc Unsigned Bands - The Gag Quartet - Le Internet Medley Chords & Tabs

 

The Gag Quartet - Le Internet Medley Chords & Tabs

Misc Unsigned Bands Chords & Tabs

Version: 1 Type: Bass Tab

The Gag Quartet - Le Internet Medley Bass Tab

The GAG Quartet - Le Internet Medley
Tabbed for 4 string bass by Emmit Dobbyn
Emm9t2@gmail.com


Nyan Cat (0:00, 0:31)
G---9---11---8--------6---11-----------|
D----------------6--------------9------|
A-7---9----6--------4---9--------------|
E--------------4--------------7---7-9--|

Leekspin (0:31, 1:09)
G---------------------|
D---------------------|
A---------------------|
E-7--8--9--10--11~----|

G-----------------------------------------------------------------|
D---------13r-13--15-1616-1515-13---16-15----------15-16-13--13---|
A-----13----------------------------------16-16-16----------------|
E-----------------------------------------------------------------|

G--------------------------------------15151313--------------------|
D-1313----13r-13--15-1616-1515-1315h16--------16161515-16r-13r-13-|
A------13----------------------------------------------------------|
E------------------------------------------------------------------|

G------15-1515-13---------------------13-13-13----------------|
D-15h16-----------16-15---------15h16----------16-15-16-1313--|
A-----------------------1616--16------------------------------|
E-------------------------------------------------------------|

G------15-1515-13---------------------13-13-13-----------------|
D-15h16-----------16-15---------15h16----------16-15-16-131313-|
A-----------------------1616--16-------------------------------|
E--------------------------------------------------------------|

G----------------------------------|
D----------------------------------|
A-6---6---4---6---6---6---4---6-6--|
E---6---6---4---6---6---6---6------|

G--------------------------------|
D--------------------------------|
A-6---4---4---6---6r----4r-5r-6r-|
E---6---4---4---6----6r----------|

Keyboard Cat (1:09, 1:41)
G-----------------------------------------------------------|
D------6-9-6---69--6\---3-6-3---36--3\----1-4-1---14--1-----|
A-4567-------7--------4-------4---------2-------2-------2~--|
E-----------------------------------------------------------|



G-------------------|
D-9999777766664444--|
A-------------------|
E-------------------|

G------------------------------------------------------------------------|
D---6-9-6---69--6---4-7-4---4-7----------6---------6---------------------|
A-7------7--------6------6------6----4--7---7--4--7---7\--2--2-2--2-2-2--|
E------------------------------------------------------------------------|

G-------------------|
D-9-9-7-7-6-6-4-4---|
A-------------------|
E-------------------|

G-------------------------------------------------------------------------|
D---6-9-6---696----4-7-4---4-7-----------6---------6---------------------|
A-7------7--------6------6------6----4--7---7--4--7---7\--2--2-2--2-2-2---|
E-------------------------------------------------------------------------|

G----------------|
D----------------|
A-3--3-3--3-3-3--|
E----------------|

Trololo (1:41, 2:16)
G-------------------------------------109~-|
D-------------------------------10-12-------|
A-------5--5------5--5-------10-------------|
E--3--3------3--3-------8--8----------------|

G-----------------------------------------|
D-----------------------------------------|
A-5------5--5------5--5------3--3------4--|
E---3--3------3--3------3--3------4--4----|

G--------------------------------------------------------|
D--------------------------------------------------------|
A--4------4--4------4--4------4--4------4--4------4--4---|
E----4--4------4--4------4--4------4--4------4--4------4-|
[ Tab from: https://www.guitartabs.cc/tabs/m/misc_unsigned_bands/the_gag_quartet_le_internet_medley_btab.html ]
G------------------------------------------------------|
D------------------------------------------------------|
A--6------6--6------4--4------5--5------4--4------5--5-|
E----6--6------6--6------4--4------5--5------4--4------|

G--------------------------------------------------------|
D--------------------------------------------------------|
A-------5-4----------5--------5-4----------5--------5-4--|
E-5-6-7------5-6-7-8----5-6-7------5-6-7-8----5-6-7------|

G-----------------------------------------------|
D-----------------------------------------------|
A-0-2-3-4-55--0-2-3-5-44--0-2-3-4-55--0-2-3-5-4-|
E-----------------------------------------------|
Chaccaron Maccaron (2:16, 2:34)
G---------------------------6\--|
D-------------------------------|
A-4-------4--------4------------|
E---0-2-4----0-2-4----0-2-4-----|

G-----------------------------------------------------|
D-----------------------------------------------------|
A-4-------------------------------------------------4-|
E---0-2-4--0-2-4--0-2-4--0-2-4--0-2-4--0-2-4--0-2-4---|

G-------------------------------|
D-------------------------------|
A-4-----------------------------|
E---0-2-4--0-2-4--0-2-4--0-2-4r-|


Numa Numa (2:34, 2:59)
(Distortion)
G-----------5-5-5-5-------------------------|
D--3-3-3-3-----------5-5-5-5--7-7-7-7-------|
A----------3-3-3-3--------------------------|
E-1-1-1-1-----------3-3-3-3--5-5-5-5--------|

G-----------5-5-5-5-------------------------|
D--3-3-3-3-----------5-5-5-5---7----7-------|
A----------3-3-3-3--------------------------|
E-1-1-1-1-----------3-3-3-3--55-5-55-5------|


Friday (2:59, 3:13)
(Distortion), (Play under Never Gonna Give You Up)
G-----------5-5------------------------|
D--3-3---------------5-5-----5-5-5-5---|
A-----131--3-3-353------353------------|
E-1-1----3--------5-3-3----53-3-3-3----|

G-----------5-5------------------------|
D--3-3---------------5-5-----7-7-7-7---|
A-----131--3-3-353------353------------|
E-1-1----3--------5-3-3----35-5-5-5----|

Never Gonna Give You Up (3:13, 3:20)

G-----17---20-20--19------17--19-19--17-16\14--|
D-1719--19------------1719--19-----------------|
A----------------------------------------------|
E----------------------------------------------|

G-----17--17-19-16-----------19r-17------17----|
D-1719--19---------19-17--17---------1719--19--|
A----------------------------------------------|
E----------------------------------------------|

Chocolate Rain (3:20, 3:26)
(Distortion)
G-----------5-5------------------------|
D--3-3---------------5-5---------------|
A-----131--3-3-353------353------------|
E-1-1----3--------5-3-3----5-6~--7~----|

Nyan Cat Reprisal (3:26, 3:43)
G-11-13-----------------------------|
D-------12-1311h13p11----11--------|
A---------------------1414----------|
E-----------------------------------|

(Heavy distortion)
G-9---11--10--11--9---10--11-|
D-9---9~--8~--9~--9---10--11-|
A-7~--------------7~--8~--9~-|
E----------------------------|

G----9---11---8--------6---11----------------|
D-----------------6--------------------------|
A-/7---9----6--------4---9---------7r9r-----|
E---------------4--------------7-9-----------|

G-------------11-13-11----------------------|
D---13--12-13----------13--11-10-119r-9r---|
A-------------------------------------------|
E-------------------------------------------|

Dramatic Ending (3:43, 3:53)
(Heavy distortion)
G--9---13---1212121212121212\---|
D--9---13---1212121212121212\---|
A--7---11---1010101010101010\---|
E-------------------------------|


Notes: Parts like Never Gonna Give You Up may not be exact, in accordance with the lack 
of a high C string, and my not having perfect pitch ;)

Have fun!!! Please email/message me with any corrections!