Misc Unsigned Bands - Sharp Side Up - Story From The Sea Chords & Tabs

 

Sharp Side Up - Story From The Sea Chords & Tabs

Misc Unsigned Bands Chords & Tabs

Version: 1 Type: Bass Tab

Sharp Side Up - Story From The Sea Bass Tab

-------------------------------------------------------------------------------
Sharp Side Up  Story From The Sea
-------------------------------------------------------------------------------
Artist: Sharp Side Up
Song: Story From The Sea
Album: This Is Getting Over You
Year: 2006
Tabbed By: Sean Walkington
e-mail: seanwalkington2003@hotmail.com

Intro

G|---------------------------------------------------------------------------|
D|---------------------------------------------------------------------------|
A|-------3-3-3-------6-6-6---------------------------------------------------|
E|-3-3-3-------6-6-6---------------------------------------------------------|

Verse
[ Tab from: https://www.guitartabs.cc/tabs/m/misc_unsigned_bands/sharp_side_up_story_from_the_sea_btab.html ]
G|---------------------------------------------------------------------------|
D|---------------------------------------------------------------------------|
A|---------3-3-3-3---------6-6-6-6-------------------------------------------|
E|-3-3-3-3---------6-6-6-6---------------------------------------------------|

Chorus

G|---------------------------------------------------------------------------|
D|---------------------------------------------------------------------------|
A|---------3-3-3-3---------6-6-6-6-------------------------------------------|
E|-3-3-3-3---------6-6-6-6---------------------------------------------------|

Interlude

G|---------------------------------------------------------------------------|
D|---------------------------------------------------------------------------|
A|-3-3-2-2-3-3---3-3-2-2-5-5-4-4---------------------------------------------|
E|---------------------------------------------------------------------------|

Structure 

Intro x4 (Just guitar for 1st and 2nd bars then bass joins in for 3rd and 4th)
Verse x6
Chorus x4
Interlude x2
Verse x6
Chorus x4
Interlude x2
Solo (Bass plays verse riff for 4 bars)
Verse x6
Chorus x8