Misc Unsigned Bands - Population Override - In The Name Of Cotton Chords & Tabs

 

Population Override - In The Name Of Cotton Chords & Tabs

Misc Unsigned Bands Chords & Tabs

Version: 1 Type: Bass Tab

Population Override - In The Name Of Cotton Bass Tab

   
Population Override
"In the Name of Cotton"
From the 2005 album Organized Chaos
Here it at http://myspace.com/populationoverride
Played on bass by Fight Club
Transcribed by Fight Club
Tuning: E-A-D-G
Played in standard 4/4

h = hammer on
* = let ring

Intro

G|----|----|----|------|
D|----|----|----|------|
A|-2*-|-4*-|----|------|
E|----|----|-2*-|-3/5*-|

Next line

G|--7-7-7-7-7-7-7-7|-9-9-9-9-9-9-9-9|-12-12-12-12-12-12-12-12|--------------|
D|-0-0-0-0-0-0-0-0-|0𥥤0-0-0-0-0-|0--0--0--0--0--0--0--0--|00000000000000|
A|--------------------------------------------------------------------------|
E|--------------------------------------------------------------------------|

G|--7-7-7-7-7-7-7-7|-9-9-9-9-9-9-9-9|-12-12-12-12-12-12-12-12|-5-5-5-5-5-5-5-5|
D|-0-0-0-0-0-0-0-0-|0𥥤0-0-0-0-0-|0--0--0--0--0--0--0--0--|0-0-0-0-0-0-0-0|
A|----------------------------------------------------------------------------|
E|----------------------------------------------------------------------------|

Only guitar plays next part twice, then chrous comes in

Chorus

G|---------------------------|
D|-----8-7-6-5-5-------------|
A|-5-5------------8-8-7-7-6-6|
E|---------------------------|

Verse

G|-------9---------7---------5---------7--|
D|---7h9---9---5h7---7---3h5---5---5h7---7|
A|-7---------5---------3---------5--------|
E|----------------------------------------|

Pre chorus

G|----|----|----|----|
D|----|----|----|----|
A|-7*-|-3*-|----|----|
E|----|----|-5*-|-7*-|
[ Tab from: https://www.guitartabs.cc/tabs/m/misc_unsigned_bands/population_override_in_the_name_of_cotton_btab.html ]
G|----------------|----------------|----------------|----------------|
D|----------------|----------------|----------------|----------------|
A|7777777777777777|3333333333333333|----------------|----------------|
E|----------------|----------------|5555555555555555|7777777777777777|

Bass solo (not entire thing)

G|-------------------6-8-9-8----------------|
D|-------------6-7-9---------9-10-9-10------|
A|-------6-7-9-------------------------10-9-|
E|-8-8-9------------------------------------|

G|--------------------------------------------------|
D|-9-10-9-10--------12-12-12-10-12-11-10----------12|
A|-----------10-9------------------------12-11-10---|
E|--------------------------------------------------|

I'm lazy and don't feel like tabbing the whole bass solo so here's a few other random parts

G|-7-7---7---------|
D|-----9---9-8-7---| Just play some random stuff similar to this and improv around it and you'll be good.
A|---------------9-|
E|-----------------|

G|-12-12-11-------------------------------------|
D|-----------12-10-9-----------12-10-9----------|
A|-------------------12-10-9-9---------12-10-9-9|
E|----------------------------------------------|

Improv around all those notes and play similar stuff all up and down the next.

Play this during the drum solo.

G|---------------------------------------|
D|---------------------------------------|
A|---------------------------------------|
E|-0-0-0-0-0-0-2-3-55-0-0-0-0-0-0-2-3-55-|

End with

G|----------------------|
D|----------------------|
A|----------------------|
E|-0-0-0-0-0-0-2-3-55-0-|