Misc Christmas - Silver Bells Chords & Tabs

 

Silver Bells Chords & Tabs

Misc Christmas Chords & Tabs

Version: 2 Type: Tab

Silver Bells Tab

Silver bells

e|----------5-7--8~----7-7-88/10--8-7-8-----------|
B|--5-6--8~------------------------------8~--------|
G|-------------------------------------------------|
D|-------------------------------------------------|
A|-------------------------------------------------|
E|-------------------------------------------------|
[ Tab from: https://www.guitartabs.cc/tabs/m/misc_christmas/silver_bells_tab_ver_2.html ]
e|----------5-7--8~----7-7-88/10--8-7-8~----------|
B|--5-6--8~----------------------------------------|
G|-------------------------------------------------|
D|-------------------------------------------------|
A|-------------------------------------------------|
E|-------------------------------------------------|

e|--8---5--------8---5---------10/12--10--8---5-5--5~---10-8-7----------108--|
B|--------8---5--------8---5-----------------------------------8-7-6--8-------|
G|----------------------------------------------------------------------------|
D|----------------------------------------------------------------------------|
A|----------------------------------------------------------------------------|
E|----------------------------------------------------------------------------|