Misc Christmas - Carol Of The Bells Chords & Tabs

 

Carol Of The Bells Chords & Tabs

Misc Christmas Chords & Tabs

Version: 3 Type: Bass Tab

Carol Of The Bells Bass Tab

Tabbed by: XxThreeCheersxX
E-mail: phantomhiveghost@gmail.com

Tuning: Standard

   1   2 + 3  | 1   2 + 3  | 1   2 + 3  | 1   2 + 3
              |            |            |
G|-3~--2-3-0~-|-3~--2-3-0~-|-3~--2-3-0~-|-3~--2-3-0~--|
D|------------|------------|------------|-------------|
A|------------|------------|------------|-------------| x 2
E|------------|------------|------------|-------------|


   1   2 + 3  | 1   2 + 3  | 1   2 + 3 | 1   2 + 3
              |            |           |
G|-7~--5-7----|-7~--5-7----|-7~--5-7---|-7~--5-7-----|
D|---------8~-|---------8~-|---------8~|---------8~--| 
A|------------|------------|-----------|-------------| x 1
E|------------|------------|-----------|-------------|

[ Tab from: https://www.guitartabs.cc/tabs/m/misc_christmas/carol_of_the_bells_btab_ver_3.html ]
   1    2  +  3  + |  1   2 + 3 + |  1   2 + 3 +
                   |              |
G|-12~--12-12-10-8-|--7~--7-7-5-3-|--5~--5-5-7-5----|
D|-----------------|--------------|-----------------|
A|-----------------|--------------|-----------------|
E|-----------------|--------------|-----------------|

   1   2 + 3  
   
G|-3~--2-3-0~-|
D|------------|
A|------------|
E|------------|

   1 + 2 + 3 + | 1 + 2   3
               |
G|-------0-2-3-|-5-7-5~--3~--|
D|-0-2-4-------|-------------|
A|-------------|-------------| x 2
E|-------------|-------------|

   1   2 + 3  | 1   2 + 3  | 1   2 + 3  | 1   2 + 3
              |            |            |
G|-3~--2-3-0~-|-3~--2-3-0~-|-3~--2-3-0~-|-3~--2-3-0~--|
D|------------|------------|------------|-------------| Play until end,
A|------------|------------|------------|-------------| getting progressively
E|------------|------------|------------|-------------| slower.
 
Thatís it, happy playing!
If there are any other Xmas songs you want me to tab out for bass, just email me.