Misc Cartoons - Pinky And The Brain Theme Chords & Tabs

 

Pinky And The Brain Theme Chords & Tabs

Misc Cartoons Chords & Tabs

Version: 2 Type: Tab

Pinky And The Brain Theme Tab

Easy 


Intro:
E|---------|---------|---------|---------|
B|---------|---------|---------|---------|
G|---------|---------|---------|---------|
D|---------|---------|---------|---------|
A|-7-5-3-2-|-7-5-3-2-|-7-5-3-2-|-7-5-3-2-|
E|---------|---------|---------|---------|

E|-----------------------------|------------------------|
B|-----------------------------|------------------------|
G|-----------------------------|------------------------|
D|-------------------5---------|----------------5-------|
A|--7------7--6---7-------6----|--7---7--6---7------6---|
E|-----------------------------|------------------------|
   They're Pinky and The Brain / yes, Pinky and The Brain

E|-----------------|-----------------|
B|-----------------|-----------------|
G|-----------------|-----------------|
D|--------5/-8-8--|--8--9-8----6--5-|
A|--7--7-----------|-----------------|
E|-----------------|-----------------|
   One is a genius / the other's insane

E|--------------------------|-----------------------------|
B|--------------------------|-----------------------------|
G|-----------------5--------|------------------5----------|
D|--7------7--6-7-----6-----|-6-----7-6---7---------6-----|
A|--------------------------|-----------------------------|
E|--------------------------|-----------------------------|
   They're laboratory mice  / their genes have been spliced

E|----------------|
B|----------------|
G|----------------|
D|----------------|
A|--3------2-2----|
E|----------------|
   They're dinky

E|-------------------------------------------------------------------------|
B|-------------------------------------------------------------------------|
G|-------------------------------------------------------------------------|
D|-------------------------------------------------------------------------|
A|-2-2---2---4---7-----5------3------2------7------5------3------2------7--|
E|-------------------------------------------------------------------------|
   Pinky and The Brain, Brain, Brain, Brain, Brain, Brain, Brain, Brain, Brain.

E|---------------------------|-----------------------------|
B|---------------------------|-----------------------------|
G|---------------------------|-----------------------------|
D|-7---7--6----7--------5----|-7-----7----6---7------5-----|
A|-------------------7-------|--------------------7--------|
E|---------------------------|-----------------------------|
   Before each night is done / their plan will be unfurled
[ Tab from: https://www.guitartabs.cc/tabs/m/misc_cartoons/pinky_and_the_brain_theme_tab_ver_2.html ]
E|---------------------------|-------------------------------|
B|---------------------------|-------------------------------|
G|---------------------------|-------------------------------|
D|--2-2---4--4---4--4---4---|-------------------------------|
A|---------------------------|-2-----2--3---4----5---6-------|
E|---------------------------|-------------------------------|
   By the dawning of the sun / they'll take over the world

E|-----------------------------|------------------------|
B|-----------------------------|------------------------|
G|-----------------------------|------------------------|
D|-------------------5---------|----------------5-------|
A|--7------7--6---7-------6----|--7---7--6---7------6---|
E|-----------------------------|------------------------|
   They're Pinky and The Brain / yes, Pinky and The Brain

E|-------------------------|--------------------|
B|-------------------------|--------------------|
G|-------------------------|--------------------|
D|-------------5/--8-8----|-8--9-8--6-5-4----|
A|--7-----7----------------|--------------------|
E|-------------------------|--------------------|
   Their twilight campaign / is easy to explain

E|------------------------------|-----------------------------|
B|------------------------------|-----------------------------|
G|--------------------5---------|-------------------5---------|
D|--7---7----6-----7------6-----|-6-------7---6--7------6-----|
A|------------------------------|-----------------------------|
E|------------------------------|-----------------------------|
    To prove their mousy worth / they'll overthrow the Earth


E|----------------|
B|----------------|
G|----------------|
D|----------------|
A|--3------2-2----|
E|----------------|
   They're dinky

E|-------------------------------------------------------------------------------|
B|-------------------------------------------------------------------------------|
G|-------------------------------------------------------------------------------|
D|-------------------------------------------------------------------------------|
A|--2-2--4--5---7-----5----3-----2----7----5-----3-----2----7----5-----3----2---|
E|-------------------------------------------------------------------------------|
   Pinky and The Brain, Brain, Brain, Brain, Brain, Brain, Brain, Brain, Brain,

E|----------------------------------|
B|----------------------------------|
G|----------------------------------|
D|----------------------------------|
A|-7--------------------------------|
E|-----------7--8--7--9--8---11-12--|
   Brain


You cud get a friend to plat 7, 5, 3, 2 while you play the rest of the song!!