Minutemen - Dream Told By Moto Chords & Tabs

 

Dream Told By Moto Chords & Tabs

Minutemen Chords & Tabs

Version: 1 Type: Bass Tab

Dream Told By Moto Bass Tab

   
Minutemen
Dream Told by Moto
off 'Buzz or Howl Under the Influence of Heat' (1983)
Originally tabbed by hbsrx


Main part
			Variation
G -------------8-6-----------------|-8-10-10--------------|
D--------8--------------6-6-6-8--|--------------8---------|
A-8-8-------------------------------|---------------------|
E------------------------------------|--------------------|

Diff. main.
G|---6---------8-----610-8-------6----------8----6-------------|
D|--8------6--8-----8------10----8-------6--8----8--------------|
A|8-----6h8-8-----8------------8----6h8---8----8-------------8--|
E|----------------------------------------------------1-1-1-3--|
[ Tab from: https://www.guitartabs.cc/tabs/m/minutemen/dream_told_by_moto_btab.html ]
Main part
			Variation
G -------------8-6-----------------|-8-10-10--------------|
D--------8--------------6-6-6-8--|--------------8---------|
A-8-8-------------------------------|---------------------|
E------------------------------------|--------------------|

pre chorus

G--------------------------------------|
D-14-13-----------------------14-15----|
A------------14-13---------------------|
E----------------------14-13-----------|

Main part
			Variation
G -------------8-6-----------------|-8-10-10--------------|
D--------8--------------6-6-6-8--|--------------8---------|
A-8-8-------------------------------|---------------------|
E------------------------------------|--------------------|

pre chorus

G--------------------------------------|
D-14-13-----------------------14-15----|
A------------14-13---------------------|
E----------------------14-13-----------|


G solo.
G|-------16-14----------|
D|-16h18-------14-------|
A|----------------14-12-|
E|----------------------|

Watt is mah hero.