Miles Kane - Come Closer Chords & Tabs

 

Come Closer Chords & Tabs

Miles Kane Chords & Tabs

Version: 1 Type: Bass Tab

Come Closer Bass Tab

Hope the following makes sense, had a few people asking for the tabs on youtube so 
decided to pop it on here.
First tab i've actually wrote down. Any questions please ask.

Part 1 Play Twice

G-----------------------------------------------------------------------------------|
D-----------------------------------------------------------------------------------|
A-------------------------------------------------9-9-9-9------------------9-9-9-9--|
E-22222222222222222--7-7-7--5-5-5--2-2-2--7-5-----------------2-2-2--7--5-----------|

.....................to get


Bit where he sings million miles
[ Tab from: https://www.guitartabs.cc/tabs/m/miles_kane/come_closer_btab.html ]
G-------------------------------------------------------------------|
D-------------------------------------------------------------------|
A-----0-0-0-0---------5-5-------------------------------------------|
E---------------2-2-2------2-2-2-2-2-2-2-2-2-2-2-2-2-2-2-2-2-2-2-2--|

Keep playing F# until aahaaahahah

Oooohhhaaahh bit

G----------------------------------------------------------------------------|
D----------------------------------------------------------------------------|
A---555555----------555555--------------------------9999---------------9999--|
E-------------2222222---------2222222-2-2----7-5- --------2-2-2-7-5----------|

PART 1 *2

Million miles part

Oooooaaahhh part

Solo  PART 1*2

Million miles part

No bass during next oooohhhaaaahhhh part
Than repeat F# till the song ends