Mika - Grace Kelly Chords & Tabs

 

Grace Kelly Chords & Tabs

Mika Chords & Tabs

Version: 2 Type: Bass Tab

Grace Kelly Bass Tab

By M!cr0b

Standard tuning : EADG


Intro :

|--------------|--------------|
|-5--5-45--5-4-|-5--5-04-04-0-|
|--------------|--------------|  x2
|--------------|--------------|


Verse 1 :

|--------------|--------------|
|-5--5-45--5-4-|-5--5-04-04-0-|
|--------------|--------------|  x3
|--------------|--------------|

then :
|--------------|----|
|-5--5-45--5-4-|-5--|
|--------------|----|
|--------------|----|


Pre-chorus 1 :

|----|----|----|----|  |----|----|----|---------|
|----|----|----|-0--|  |----|----|----|-0-0-0-0-|
|----|-3--|----|----|  |----|-3--|----|---------|
|-3--|----|-1--|----|  |-3--|----|-1--|---------|


Chorus 1 :

|---------|-----------|-----------|-----------|----|
|---------|-----------|------2-22-|-0-00------|----|
|---------|-------0-2-|-3-33------|------3-32-|----|  x2
|-3-3-3-3-|-3-3-3-----|-----------|-----------|-3--|


Verse 2 :

|---------|-----------|-----------|-----------|----|
|---------|-----------|------2-22-|-0-00------|----|
|---------|-------0-2-|-3-33------|------3-32-|----|  x2
|-3-3-3-3-|-3-3-3-----|-----------|-----------|-3--|

[ Tab from: https://www.guitartabs.cc/tabs/m/mika/grace_kelly_btab_ver_2.html ]
Pre-chorus 2 :

|----|----|----|----|  |----|----|----|---------|
|----|----|----|-0--|  |----|----|----|-0-0-0-0-|
|----|-3--|----|----|  |----|-3--|----|---------|
|-3--|----|-1--|----|  |-3--|----|-1--|---------|


Chorus 2 :

|---------|-----------|-----------|-----------|----|
|---------|-----------|------2-22-|-0-00------|----|
|---------|-------0-2-|-3-33------|------3-32-|----|  x2
|-3-3-3-3-|-3-3-3-----|-----------|-----------|-3--|


Bridge :

|----|----|----|----|  |----|----|-------|-------|----|----|
|----|----|----|----|  |----|----|-------|----0--|----|-0--|
|-3--|----|----|----|  |-3--|----|-------|-------|-3--|----|
|----|-1--|-3--|-3--|  |----|-1--|-3--2--|-0-----|----|----|


Chorus 3 (without bass) :


Chorus 4 :

|---------|-----------|-----------|-----------|------|
|---------|-----------|------2-22-|-0-00------|------|
|---------|-------0-2-|-3-33------|------3-32-|------|  x2
|-3-3-3-3-|-3-3-3-----|-----------|-----------|-3----|


Outro :

|-------|-------|-------|------|
|-2--0--|-------|-------|------|
|-------|-3--2--|-0-----|------|
|-------|-------|----3--|-1----|