Mika - Big Girls You Are Beautiful Chords & Tabs

 

Big Girls You Are Beautiful Chords & Tabs

Mika Chords & Tabs

Version: 1 Type: Bass Tab

Big Girls You Are Beautiful Bass Tab

Artist: Mika
Song: Big Girls
Tuning: Standard (EADG)
Author: Zephyros



Intro

G |-------------------|-------------------|
D |----9---9---9---9--|----9---9---7---7--|
A |-------------------|-------------------| 
E |--7---7---7---7----|--7---7---7---7----|


Verse 1

G |-----------------|-----------------|-----------------|-----------------|
D |---9---9---9---9-|---2---2---2---2-|---7---7---7---7-|---4---4---2---4-|
A |-----------------|-----------------|-----------------|-----------------|
E |-7---7---7---7---|-0---0---0---0---|-5---5---5---5---|-2---2---2---2-x|


G |-----------------|-----------------|-----------------|-----------------|
D |---9---9---9---9-|---2---2---2---2-|---7---7---7---7-|---4---4---2---4-|
A |-----------------|-----------------|-----------------|-----------------|
E |-7---7---7---7---|-0---0---0---0---|-5---5---5---5---|-2---2---2---2--|


G |-----------------|-----------------|-----------------|-----------------|
D |---9---9---9---9-|---7---7---7---7-|---2---2---2---2-|---4---4---4---4-|
A |-----------------|-----------------|-----------------|-----------------|
E |-7---7---7---7---|-5---5---5---5---|-0---0---0---0---|-2---2---2---2--|


G |-----------------|-----------------|-----------------|-----------------|
D |---9---9---9---9-|---7---7---7-----|---2---2---2---3-|---4---4---4---4-|
A |-----------------|---------------4-|-----------------|-----------------|
E |-7---7---7---7---|-5---5---5---2---|-0---0---0---1---|-2---2---2---2--|



Chorus

G |-----------------|-----------------|---6---6---6---6-|-----------------|
D |---9---9---9---9-|---2---2---2---2-|-----------------|---4---4---4---4-|
A |-----------------|-----------------|-4---4---4---4---|-----------------|
E |-7---7---7---7---|-0---0---0---0---|-----------------|-2---2---2---2--|


G |-----------------|---------------4-|---6---6---6---6-|-----------------|
D |---9---9---9---9-|---2---2---2-----|-----------------|---4---4---4---4-|
A |-----------------|-------------2---|-4---4---4---4---|-----------------|
E |-7---7---7---7---|-0---0---0-------|-----------------|-2---2---2---2--|


G |-----------------|-----------------|---6---6---6---6-|-----------------|
D |---9---9---9---9-|---2---2---2---2-|-----------------|---4---4---4---4-|
A |-----------------|-----------------|-4---4---4---4---|-----------------|
E |-7---7---7---7---|-0---0---0---0---|-----------------|-2---2---2---2--|


G |-----------------|---------------4-|---6---6---6---6-|-----------------|
D |---9---9---9---9-|---2---2---2-----|-----------------|---4---4---4-----|
A |-----------------|-------------2---|-4---4---4---4---|-----------------|
E |-7---7---7---7---|-0---0---0-------|-----------------|-2---2---2---2--|


Verse 2
[ Tab from: https://www.guitartabs.cc/tabs/m/mika/big_girls_you_are_beautiful_btab.html ]
G |-----------------|-----------------|-----------------|-----------------|
D |---9---9---9---9-|---2---2---2---2-|---7---7---7---7-|---4---4---2---4-|
A |-----------------|-----------------|-----------------|-----------------|
E |-7---7---7---7---|-0---0---0---0---|-5---5---5---5---|-2---2---2---2-x|


G |-----------------|-----------------|-----------------|-----------------|
D |---9---9---9---9-|---2---2---2---2-|---7---7---7---7-|---4---4---2---4-|
A |-----------------|-----------------|-----------------|-----------------|
E |-7---7---7---7---|-0---0---0---0---|-5---5---5---5---|-2---2---2---2--|


G |-----------------|-----------------|-----------------|-----------------|
D |---9---9---9---9-|---7---7---7-----|---2---2---2---3-|---4---4---4---4-|
A |-----------------|---------------4-|-----------------|-----------------|
E |-7---7---7---7---|-5---5---5---2---|-0---0---0---1---|-2---2---2---2--|



Chorus

G |-----------------|-----------------|---6---6---6---6-|-----------------|
D |---9---9---9---9-|---2---2---2---2-|-----------------|---4---4---4---4-|
A |-----------------|-----------------|-4---4---4---4---|-----------------|
E |-7---7---7---7---|-0---0---0---0---|-----------------|-2---2---2---2--|


G |-----------------|---------------4-|---6---6---6---6-|-----------------|
D |---9---9---9---9-|---2---2---2-----|-----------------|---4---4---4---4-|
A |-----------------|-------------2---|-4---4---4---4---|-----------------|
E |-7---7---7---7---|-0---0---0-------|-----------------|-2---2---2---2--|


G |-----------------|-----------------|---6---6---6---6-|-----------------|
D |---9---9---9---9-|---2---2---2---2-|-----------------|---4---4---4---4-|
A |-----------------|-----------------|-4---4---4---4---|-----------------|
E |-7---7---7---7---|-0---0---0---0---|-----------------|-2---2---2---2--|


G |-----------------|---------------4-|---6---6---6---6-|-----------------|
D |---9---9---9---9-|---2---2---2-----|-----------------|---4---4---4-----|
A |-----------------|-------------2---|-4---4---4---4---|-----------------|
E |-7---7---7---7---|-0---0---0-------|-----------------|-2---2---2---2--|



Bridge

G |-----------------|-----------------|-----------------|-----------------|
D |-----------------|-----------------|-----------------|-----------------|
A |-2-------2--2----|-----------2-----|-----------------|-----------------|
E |-----------------|-0---x/4-----4---|-5---x-0-1-------|-2--x-2----/4--|


G |-----------------|-----------------|-----------------|-----------------|
D |-----------------|-----------------|-----------------|------4----------|
A |-2-----x/2--/2---|--------------2--|--4---/4--/4-----|---2-4-----------|
E |-----------------|-0--x-0--x/4--4-|-----------------|-2-----x22x24--|


Repeat Chorus until the end.
Good Luck lads.