Melee - Built To Last Chords & Tabs

 

Built To Last Chords & Tabs

Melee Chords & Tabs

Version: 1 Type: Tab

Built To Last Tab

Song Title  Built To Last
Artist  Melee
Tabbed by Shala (shala_lee@hotmail.com)

Standard tuning

[intro] play twice 
e|-----1-----1--------1-----1-|-------4-----4--------4-----4-|
B|-1h2---1h2----1-1h2---1h2---|-4-4h6---4h6----4-4h6---4h6---|
G|----------------------------|------------------------------|
D|----------------------------|------------------------------|
A|----------------------------|------------------------------|
E|----------------------------|------------------------------|
[ Tab from: https://www.guitartabs.cc/tabs/m/melee/built_to_last_tab.html ]
e|-------6-----6--8-8--------|-----1-----1-------4-----4-|
B|-6-6h7---6h7---------9-7---|-1h2---1h2----1-1h2---1h2--|
G|-------------------------8-|---------------------------|
D|---------------------------|---------------------------|
A|---------------------------|---------------------------|
E|---------------------------|---------------------------|

[interlude] same as intro

[outro riff]
e|-----1-----1--------1-----1-|-------4-----4--------4-----4-|
B|-1h2---1h2----1-1h2---1h2---|-4-4h6---4h6----4-4h6---4h6---|
G|----------------------------|------------------------------|
D|----------------------------|------------------------------|
A|----------------------------|------------------------------|
E|----------------------------|------------------------------|

e|-------1-----1--------1-----1-|-------4-----4--------4-----------|
B|-1-1h2---1h2----1-1h2---1h2---|-4-4h6---4h6----4-4h6---6-4-------|
G|------------------------------|----------------------------6-5-6-|
D|------------------------------|----------------------------------|
A|------------------------------|----------------------------------|
E|------------------------------|----------------------------------|