Mcfly - Love Is Easy Chords & Tabs

 

Love Is Easy Chords & Tabs

Mcfly Chords & Tabs

Version: 2 Type: Tab

Love Is Easy Tab

Chorus (1:51)

G|----------------------------------------------------------|
D|----------------------------------------------------------|
A|-5-------------5-----7--------5--4--9--11-7-6----5--------|
E|---5--0---2-0-----5----2-0--------------------------------|

Do  dos

G|----------------------------------------------------------|
D|----------------------------------------------------------|
A|---------------------5-5-7-7------------------------------|
E|-5-5-57975-2-2-24542--------------------------------------|

G|----------------------------------------------------------|
D|----------------------------------------------------------|
A|---------------------5-5-7-7-s-\--------------------------|
E|-5-5-57975-2-2-24542--------------------------------------|

(2:46)
[ Tab from: https://www.guitartabs.cc/tabs/m/mcfly/love_is_easy_tab_ver_2.html ]
G|-------------------------------|
D|-------------------------------|
A|-1212121212--------------------|
E|-------------------------------|

Chorus

G|-----------------------------------------------------------------|
D|-----------------------------------------------------------------|
A|-55----77-------55------77--------55--44--99--11-77-6666----555--|
E|---55-----2-0-------55-----2-0-----------------------------------|

Do  dos

G|-----------------------------------------------------------------|
D|---------------------------976-----------------------------------|
A|---------------------5-5-7-----------12121212--------------------|
E|-5-5-57975-2-2-24542-----------5-5-------------------------------|

G|-------------------------------------------------------------------|
D|------764-4-----764-4----------------------------------------------|
A|---------7---------7--5-5-7-7- ------------------------------------|
E|-5-5--------2-2---------------5------------------------------------|