Mayday Parade - No Heroes Allowed Chords & Tabs

 

No Heroes Allowed Chords & Tabs

Mayday Parade Chords & Tabs

Version: 1 Type: Bass Tab

No Heroes Allowed Bass Tab

Tuning: Drop D

Intro
G|---------------------------------------------------------------|
D|---------------------------------------------------------------|
A|----------------------3-3-1-1----------------------------------|
D|-1-1-1-1-3-5-5-5-5-8----------6-6-6-5-3-5----------------------|

Verse
G|---------------------------------------------------------------|
D|---------------------------------------------------------------|
A|----------------------3-3-1-1----------------------------------|
D|-1-1-1-1-3-5-5-5-5-8----------6-6-6-5-3-5----------------------|


G|---------------------------------------------------------------|
D|---------------------------------------------------------------|
A|----------------------3-3-1-1----------------------------------|
D|-1-1-1-1-3-5-5-5-5-8----------6-6-6666666----------------------|

Chorus
G|---------------------------------------------------------------|
D|---------------------------------------------------------------|
A|-----------------------33333-11111-----------------------------|
D|-1111111111-5555555555-------------6666666666------------------|


Intro

Verse (Donít play last few notes first time)

[ Tab from: https://www.guitartabs.cc/tabs/m/mayday_parade/no_heroes_allowed_btab.html ]
Pre-chorus
G|---------------------------------------------------------------|
D|---------------------------------------------------------------|
A|---------------------------------------------------------------|
D|-10--8--1--11111111111-----------------------------------------|


Chorus 

Solo (Play chorus)


Bridge
G|---------------------------------------------------------------|
D|---------------------------------------------------------------|
A|---------------------------------------------------------------|
D|-1--5--10--8--5------------------------------------------------|

G|---------------------------------------------------------------|
D|---------------------------------------------------------------|
A|--------------------3333-1111----------------------------------|
D|-1111111-3-55555555-----------66666666-------------------------|


G|---------------------------------------------------------------|
D|---------------------------------------------------------------|
A|---------------------------------------------------------------|
D|-10--8--1------------------------------------------------------|

G|---------------------------------------------------------------|
D|---------------------------------------------------------------|
A|---------------3--3-1--1---------------------------------------|
D|-1--1-3-5--5-8------------6------------------------------------|


Chorus


Outro
G|---------------------------------------------------------------|
D|---------------------------------------------------------------|
A|-3333-1111-----------------------------------------------------|
D|-----------1--1------------------------------------------------|