Maximo Park - Signal And Sing Chords & Tabs

 

Signal And Sing Chords & Tabs

Maximo Park Chords & Tabs

Version: 1 Type: Bass Tab

Signal And Sing Bass Tab

1-Signal and sign

Standard tuning

Intro (starts with drums, then guitars enter, then bass)
|----------------|x2
|----------------|
|----------------|
|-5--3---9---5--|

Verse
|-----------------|x2
|-----------------|
|-----------------|
|-7---5/---9---7--|

|----------------------|
|----------------------|
|----------------------|
|-55555555/101010-9-99-|

|-----------------|
|-----------------|
|-----------------|
|-7---5/---9---7--|
[ Tab from: https://www.guitartabs.cc/tabs/m/maximo_park/signal_and_sing_btab.html ]
Chorus
|---------------------------------------------------------------|
|-----------7-5-----------------------------7-5-----------------|
|-5-5-5-5-5-----5-----------------5-5-5-5-5-----5---------------|
|-----------------8-8-8-8-8-8-8-8-----------------8-8-8-8-8-8-7-|
Ending1
|----------------------------------|
|----------------------------------|
|-7-5---------5------7-5---------5-|
|-----7-5-3h5---0--------7-5-3h5---|

Verse
|-----------------|x2
|-----------------|
|-----------------|
|-7---5/---9---7--|

|----------------------|
|----------------------|
|----------------------|
|-55555555/101010-9-99-|


|-----------------|
|-----------------|
|-----------------|
|-7---5/---9---7--|

Chorus
|---------------------------------------------------------------|
|-----------7-5-----------------------------7-5-----------------|
|-5-5-5-5-5-----5-----------------5-5-5-5-5-----5---------------|
|-----------------8-8-8-8-8-8-8-8-----------------8-8-8-8-8-8-7-|
Ending2
|--------------------------------------------------------------------------|
|--------------------------------------------------------------------------|
|-7-5---------5------7-5---------5-7----7-5---------5------7-5---------5-7-|
|-----7-5-3h5---0--------7-5-3h5------------7-5-3h5---0--------7-5-3h5-----|