Maximo Park - Girls Who Play Guitars Chords & Tabs

 

Girls Who Play Guitars Chords & Tabs

Maximo Park Chords & Tabs

Version: 1 Type: Bass Tab

Girls Who Play Guitars Bass Tab

   
Band: Maximo Park
Song: Girls who play guitars INTRO
Itís my first tab, please rate it! x kruutje

Standard tuning ( E A D G )

G|---------------------------------|
D|--------------------------9-11---|
A|--9-11----9-11----9-11-----------|
E|---------------------------------|
[ Tab from: https://www.guitartabs.cc/tabs/m/maximo_park/girls_who_play_guitars_btab.html ]
G|-^--------^--------^--------^-------------|
D|-99-------9--------9--------9999-11--9-11-|
A|---99-11----99-11----99-11----------------|
E|------------------------------------------|

You've been, with me, A year, to the day
G|---------------------------------|
D|--------------------------9-11---|
A|--9-11----9-11----9-11-----------|
E|---------------------------------|
, 365 dags, watching me decay
G|-^----------------^--------^------------------|
D|-99---------------99-------9999-11-11-11-11-11|
A|---99-11---9-11-----99-11---------9-----------|
E|----------------------------------------------|