Maximo Park - Apply Some Pressure Chords & Tabs

 

Apply Some Pressure Chords & Tabs

Maximo Park Chords & Tabs

Version: 1 Type: Bass Tab

Apply Some Pressure Bass Tab

Standard tuning

Guitar intro
Bridge
|--------------|
|--------------|
|------------5-|
|-7-7-5h7p5---|

Verse
|-----------------|
|-----------------|
|-----------------|
|-7-77-101010-999-|

Pre-Chorus
|-----------------|
|-----------------|
|----4-2-777-666-|
|-2---------------|

Break

Bridge
|--------------|
|--------------|
|------------5-|
|-7-7-5h7p5---|

Verse
|-----------------|
|-----------------|
|-----------------|
|-7-77-101010-999-|

Pre-Chorus
|-----------------|
|-----------------|
|----4-2-777-666-|
|-2---------------|

Verse2
|------------------|x4|----------------------------|
|------------------|  |----------------------------|
|------------------|  |----------------------------|
|-777-101010-121212|  |-12-1212--12-1212--12121212-|

[ Tab from: https://www.guitartabs.cc/tabs/m/maximo_park/apply_some_pressure_btab.html ]
Chorus
|---------------------------------------------------------------------|
|---------------------------------------------------------------------|
|------------------5555555555555555------------------7777777777777777-|
|-7777777777777777------------------5555555555555555------------------|

|------------------------------------------------------------------------|
|------------------------------------------------------------------------|
|----------------------5555777555555777-----------------7777777777777777-|
|-77771010107777771010------------------555577755555577------------------|

Verse2
|------------------|x4|----------------------------|
|------------------|  |----------------------------|
|------------------|  |----------------------------|
|-777-101010-121212|  |-12-1212--12-1212--12121212-|

Chorus2
|------------------------------------------------------------------------|
|------------------------------------------------------------------------|
|----------------------5555777555555777-----------------7777777777777777-|
|-77771010107777771010------------------555577755555577------------------|

Verse
|-----------------|
|-----------------|
|-----------------|
|-7-77-101010-999-|

Bridge
|--------------|
|--------------|
|------------5-|
|-7-7-5h7p5---|