Matches - Destination Nowhere Near Chords & Tabs

 

Destination Nowhere Near Chords & Tabs

Matches Chords & Tabs

Version: 1 Type: Bass Tab

Destination Nowhere Near Bass Tab

   
Yeah, I couldn't find this song anywhere.. so I took it oppon myself.
Enjoy!

Destination: Nowhere Near:

Standard Tuning.. E A D G

Intro:
[----------------------------------------------------------|
[----------------------------------------------------------|
[-00-00-00-00-00-00-00-44-44-55-55-00-00-00-00-44-44-55-55-|
[----------------------------------------------------------|

--------------------------------------------------]
--------------------------------------------------]
-00-00-00-00-44-44-55-55-44-44-55-55-44-44-55-55-7]
--------------------------------------------------]

Verse x2:
[------------------124-]
[------------454-2-----]
[-00000000-5-----------]
[----------------------]
[ Tab from: https://www.guitartabs.cc/tabs/m/matches/destination_nowhere_near_btab.html ]
Pre-Chorus:
[--------------------------------------]
[-------4--------------4---------------]
[-----5---000-77~----5---0000-77777777-]
[-222------------222-------------------]

Chorus:
[----------------------------------------|
[----------------------------------------|
[-4444-5555-00000000--4444-5555-00000000-|
[----------------------------------------|

---------------------------------------]
---------------------------------------]
-4444-5555-4444-5555-4444-5555-7777777-]
---------------------------------------]

From 1st Chorus: Verse x2
                Pre-Chorus
                Chorus
                Then:

Bass Solo x2:
[-----23-555-10-9------10-10-97-----10-10----10-10------------------]
[-3-3------------1010----------10-8------8-8-----8-7-8-10-8-7-8-7-5]
[-------------------------------------------------------------------]
[-------------------------------------------------------------------]

End with: Chorus
          End with open A

Rate well.