Mastodon - Wolf Is Loose Chords & Tabs

 

Wolf Is Loose Chords & Tabs

Mastodon Chords & Tabs

Version: 2 Type: Tab

Wolf Is Loose Tab

   
Artist: Mastodon
Album: Blood Mountain
Song: The Wolf is Loose

/ - Slide Up
\ - Slide Down
.  Palm Mute
()- Leave Note Ringing

Tuning: D,G,C,F,A,D (low to high)

Intro: Pick Slide over C,F,A,

Verse 1:


E|----------------------------|----------------------------|
B|----------------------------|----------------------------|
G|----------------------------|----------------------------|
D|-------9-----5-----5-----5--|-------9-----5-----5-----5--|
A|-------7-----3-----3-----3--|-------7-----3-----3-----3--|
E|---0------------------------|---0------------------------|
                                                              
E|----------------------------|----------------------------|
B|----------------------------|----------------------------|
G|----------------------------|----------------------------|
D|-------12----8-----8-----8--|------12-----8-----8-----8--|
A|-------10----6-----6-----6--|------10-----6-----6-----6--|
E|---0------------------------|---0------------------------|


Verse 2:


E|----------------------------|----------------------------|
B|----------------------------|----------------------------|
G|----11--12----11------------|----11--12----11------------|
D|----------------------------|----------------------------|
A|----9---10----9-------------|----9---10----9-------------|
E|----------------------------|----------------------------|


E|----------------------------|----------------------------|
B|----------------------------|----------------------------|
G|---11--9----12--------------|----11----9-----12----------|
D|----------------------------|----------------------------|
A|---9---7----10--------------|----9-----7-----10----------|
E|----------------------------|----------------------------|


E|----------------------------|----------------------------|
B|----------------------------|----------------------------|
G|----11--12----11------------|----11--12----11------------|
D|----------------------------|----------------------------|
A|----9---10----9-------------|----9---10----9-------------|
E|----------------------------|----------------------------|


E|----------------------------|----------------------------|
B|----------------------------|----------------------------|
G|---11--9----14--14--14--14--|----14-14-14-14-14-14-14----|
D|----------------------------|----------------------------|
A|---9---7----12--12--12--12--|----12-12-12-12-12-12-12----|
E|----------------------------|----------------------------|


Verse 3:

E|----------------------------|----------------------------|
B|----------------------------|----------------------------|
G|----------------------------|----------------------------|
D|----------------------------|----------------------------|
A|----14----10-----9----------|---12------9-----7----------|
E|----12----8------7----------|---10------7-----5----------|

E|----------------------------|----------------------------|
B|----------------------------|----------------------------|
G|----------------------------|----------------------------|
D|----------------------------|----------------------------|
A|----9----7-----9------------|-----10-------10------------|
E|----7----5-----7------------|-----8--------8-------------|

E|----------------------------|----------------------------|
B|----------------------------|----------------------------|
G|----------------------------|----------------------------|
D|----------------------------|----------------------------|
A|----14----10-----9----------|---12------9-----7----------|
E|----12----8------7----------|---10------7-----5----------|

E|----------------------------|----------------------------|
B|----------------------------|----------------------------|
G|----------------------------|----------------------------|
D|----------------------------|----------------------------|
A|----9----7-----9------------|-----10-------10------------|
E|----7----5-----7------------|-----8--------8-------------|

E|----------------------------|----------------------------|
B|---12-----------------------|--10------------------------|
G|--------12-----11-----------|-------11----9--------------|
D|---9------------------------|--7-------------------------|
A|--------10-----9------------|-------9-----7--------------|
E|----------------------------|----------------------------|

E|----------------------------|----------------------------|
B|----------------------------|----------------------------|
G|--11----9----11-------------|-------12------12-----------|
D|----------------------------|----------------------------|
A|--9-----7----9--------------|-------10------10-----------|
E|----------------------------|----------------------------|

E|----------------------------|----------------------------|
B|---12-----------------------|--10------------------------|
G|--------12-----11-----------|-------11----9--------------|
D|---9------------------------|--7-------------------------|
A|--------10-----9------------|-------9-----7--------------|
E|----------------------------|----------------------------|

E|----------------------------|----------------------------|
B|----------------------------|----------------------------|
G|--11----9----11-------------|-------12------12-----------|
D|----------------------------|----------------------------|
A|--9-----7----9--------------|-------10------10-----------|
E|----------------------------|----------------------------|


Guitar Solo 1:

E|----------------------------|----------------------------|
B|----------------------------|----------------------------|
G|----------------------------|----------------------------|
D|----------------------------|----------------------------|
A|--/7---5---7-/-7-----5----7-|-/7---5---------------------|
E|----------------------------|-----------6---6---5---3----|

E|----------------------------|----------------------------|
B|----------------------------|----------------------------|
G|----------------------------|----------------------------|
D|--/9---7---9-/-9-----7----9-|-/9---7---------------------|
A|--/7---5---7-/-7-----5----7-|-/7---5----8---8---7---5----|
E|----------------------------|-----------6---6---5---3----|
                                                               
E|----------------------------|----------------------------|
B|----------------------------|----------------------------|
G|----------------------------|----------------------------|
D|----------------------------|------------/5--5--5--5-----|
A|--/7---5---/8---8--8--8-----|--/7---5--------------------|
E|----------------------------|----------------------------|

E|----------------------------|----------------------------|
B|----------------------------|----------------------------|
G|----------------------------|----------------------------|
D|-----------/5---5--5--5-----|----------/7---7--7--7------|
A|--/7---5--------------------|--7---5---------------------|
E|----------------------------|----------------------------|


7/8 Riff:

E|----------------------------|----------------------------|
B|----------------------------|----------------------------|
G|----------------------------|----------------------------|
D|------9---------------------|------9---------------------|
A|------7---------------------|------7---------------------|
E|--0--------7-7-5-5-3-3------|--0--------7-7-5-5-3-3------|
             . . . . . .                  . . . . . .   

E|----------------------------|----------------------------|
B|----------------------------|----------------------------|
G|----------------------------|----------------------------|
D|------9---------------------|----10---10--10--10---------|
A|------7---------------------|----8----8---8---8----------|
E|--0--------7-7-5-5-3-3------|----8----8---8---8----------|
             . . . . . .             

E|----------------------------|----------------------------|
B|----------------------------|----------------------------|
G|----------------------------|----------------------------|
D|------9---------------------|------9---------------------|
A|------7---------------------|------7---------------------|
E|--0--------7-7-5-5-3-3------|--0--------7-7-5-5-3-3------|
             . . . . . .                  . . . . . .   

E|----------------------------|----------------------------|
B|----------------------------|----------------------------|
G|----------------------------|----------------------------|
D|------9---------------------|----10---10--10--10---------|
A|------7---------------------|----8----8---8---8----------|
E|--0--------7-7-5-5-3-3------|----8----8---8---8----------|
             . . . . . .             

E|----------------------------|----------------------------|
B|----------------------------|----------------------------|
G|----------------------------|----------------------------|
D|------6---------------------|------6---------------------|
A|------7---------------------|------7---------------------|
E|--0--------7-7-5-5-3-3------|--0--------7-7-5-5-3-3------|
             . . . . . .                  . . . . . .   

E|----------------------------|----------------------------|
B|----------------------------|----------------------------|
G|----------------------------|----------------------------|
D|------6---------------------|----7----7---7---7----------|
A|------7---------------------|----8----8---8---8----------|
E|--0--------7-7-5-5-3-3------|----------------------------|
             . . . . . .             
E|----------------------------|----------------------------|
B|----------------------------|----------------------------|
G|----------------------------|----------------------------|
D|------6---------------------|------6---------------------|
A|------7---------------------|------7---------------------|
E|--0--------7-7-5-5-3-3------|--0--------7-7-5-5-3-3------|
             . . . . . .                  . . . . . .   

E|----------------------------|----------------------------|
B|----------------------------|----------------------------|
G|----------------------------|----------------------------|
D|------6---------------------|----7----7---7---7----------|
A|------7---------------------|----8----8---8---8----------|
E|--0--------7-7-5-5-3-3------|----------------------------|
             . . . . . .           

Guitar Solo 2:

E|----------------------------|----------------------------|
B|----------------------------|----------------------------|
G|----------------------------|----------------------------|
D|----------------------------|----------------------------|
A|--/7---5---7-/-7-----5----7-|-/7---5---------------------|
E|----------------------------|-----------6---6---5---3----|
[ Tab from: https://www.guitartabs.cc/tabs/m/mastodon/wolf_is_loose_tab_ver_2.html ]
E|----------------------------|----------------------------|
B|----------------------------|----------------------------|
G|----------------------------|----------------------------|
D|--/9---7---9-/-9-----7----9-|-/9---7---------------------|
A|--/7---5---7-/-7-----5----7-|-/7---5----8---8---7---5----|
E|----------------------------|-----------6---6---5---3----|
                                                               
E|----------------------------|----------------------------|
B|----------------------------|----------------------------|
G|----------------------------|----------------------------|
D|----------------------------|------------/5--5--5--------|
A|--/7---5---/8---8--8--8-----|--/7---5--------------------|
E|----------------------------|----------------------------|

E|----------------------------|----------------------------|
B|----------------------------|----------------------------|
G|----------------------------|----------------------------|
D|-----------/7---7--7--7-----|----------/9---9--9--9------|
A|--/7---5--------------------|--7---5---------------------|
E|----------------------------|----------------------------|

E|----------------------------|
B|----------------------------|
G|--7--7--7--7--9--9--9-------|
D|----------------------------|
A|----------------------------|
E|----------------------------|

E|----------------------------|----------------------------|
B|----------------------------|----------------------------|
G|--/9--7--5------------------|----------------------------|
D|------------9--7--5---------|----------------------------|
A|----------------------------|--8--7--5-------------------|
E|----------------------------|------------8--7--5--3--0---|

                         Two Guitars
/----------------------------------------------------------\

E|----------------------------|----------------------------|
B|---/13---12---10------------|----------------------------|
G|---/10---9----7--12--11--9--|----------------------------|
D|-----------------10--9---7--|-12--10--9------9--10---9---|
A|----------------------------|-10--8---7--12--7--8----7---|
E|----------------------------|------------10--------------|

\----------------------------------------------------------/
                         Two Guitars

E|----------------------------|----------------------------|
B|----------------------------|----------------------------|
G|--/9--7--5------------------|----------------------------|
D|------------9--7--5---------|----------------------------|
A|----------------------------|--8--7--5-------------------|
E|----------------------------|------------8--7--5--3--0---|

                         Two Guitars
/----------------------------------------------------------\

E|----------------------------|----------------------------|
B|---/13---12---10------------|----------------------------|
G|---/10---9----7--12--11--9--|----------------------------|
D|-----------------10--9---7--|-12--10--9------9--10---9---|
A|----------------------------|-10--8---7--12--7--8----7---|
E|----------------------------|------------10--------------|

\----------------------------------------------------------/
                         Two Guitars

E|----------------------------|----------------------------|
B|----------------------------|----------------------------|
G|--/9--7--5------------------|----------------------------|
D|------------9--7--5---------|----------------------------|
A|----------------------------|--8--7--5-------------------|
E|----------------------------|------------8--7--5--3--0---|

                         Two Guitars
/----------------------------------------------------------\

E|----------------------------|----------------------------|
B|---/13---12---10------------|----------------------------|
G|---/10---9----7--12--11--9--|----------------------------|
D|-----------------10--9---7--|-12--10--9------9--10---9---|
A|----------------------------|-10--8---7--12--7--8----7---|
E|----------------------------|------------10--------------|

\----------------------------------------------------------/
                         Two Guitars

E|----------------------------|----------------------------|
B|----------------------------|----------------------------|
G|--/9----7--5----------------|----------------------------|
D|---------------9--7---5-----|----------------------------|
A|----------------------------|-8--7--5--------------------|
E|----------------------------|-----------8--7--5--3--0----|

E|----------------------------|
B|----------------------------|
G|----------------------------|
D|----------------------------|
A|----3---------5-------------|
E|----1---------3-------------|

Verse 4:

E|----------------------------|----------------------------|
B|----------------------------|----------------------------|
G|----------------------------|----------------------------|
D|----------------------------|----------------------------|
A|---7--7--7--5--7------------|---7--7--7--5--7------------|
E|---5--5--5--3--5----0-------|---5--5--5--3--5---0--------|

E|----------------------------|----------------------------|
B|----------------------------|----------------------------|
G|----------------------------|----------------------------|
D|----------------------------|----------------------------|
A|---10-10-10-9--10-----------|---10-10-10-9-10----12------|
E|---8--8--8--7--8----0-------|---8--8--8--7--8----10------|

E|----------------------------|----------------------------|
B|----------------------------|----------------------------|
G|----------------------------|----------------------------|
D|----------------------------|----------------------------|
A|---14--14--14--12--14-------|---14--14--14--12--14----12-|
E|---12--12--12--10--12----0--|---12--12--12--10--12----10-|

E|----------------------------|----------------------------|
B|----------------------------|----------------------------|
G|----------------------------|----------------------------|
D|----------------------------|----------------------------|
A|---10-10-10-9--10-----------|---10-10-10-9-10----9-------|
E|---8--8--8--7--8----0-------|---8--8--8--7--8----7-------|

E|----------------------------|----------------------------|
B|----------------------------|----------------------------|
G|----------------------------|----------------------------|
D|----------------------------|----------------------------|
A|---7--7--7--5--7------------|---7--7--7--5--7---9--------|
E|---5--5--5--3--5----0-------|---5--5--5--3--5---7--------|

E|----------------------------|----------------------------|
B|----------------------------|----------------------------|
G|----------------------------|----------------------------|
D|----------------------------|----------------------------|
A|---10-10-10-9--10-----------|---10-10-10-9-10----12------|
E|---8--8--8--7--8----0-------|---8--8--8--7--8----10------|

E|----------------------------|----------------------------|
B|----------------------------|----------------------------|
G|----------------------------|----------------------------|
D|--/10---9--7----------------|----------------------------|
A|--/8----7--5--10--9--7------|------6---------------------|
E|--------------8---7--5------|------4---------------------|

E|----------------------------|----------------------------|
B|----------------------------|----------------------------|
G|----------------------------|----------------------------|
D|--/9----7---5---------------|----------------------------|
A|--/7----5---3--9--7--5------|--3-----------5-------------|
E|---------------7--5--3------|--1-----------3-------------|

E|----------------------------|----------------------------|
B|----------------------------|----------------------------|
G|----------------------------|----------------------------|
D|----------------------------|----------------------------|
A|---7--7--7--5--7------------|---7--7--7--5--7---9--------|
E|---5--5--5--3--5----0-------|---5--5--5--3--5---7--------|

E|----------------------------|----------------------------|
B|----------------------------|----------------------------|
G|----------------------------|----------------------------|
D|----------------------------|----------------------------|
A|---10-10-10-9--10-----------|---10-10-10-9-10----12------|
E|---8--8--8--7--8----0-------|---8--8--8--7--8----10------|

E|----------------------------|----------------------------|
B|----------------------------|----------------------------|
G|----------------------------|----------------------------|
D|--/10---9--7----------------|----------------------------|
A|--/8----7--5--10--9--7------|------6---------------------|
E|--------------8---7--5------|------4---------------------|

E|----------------------------|----------------------------|
B|----------------------------|----------------------------|
G|----------------------------|----------------------------|
D|--/9----7---5---------------|----------------------------|
A|--/7----5---3--9--7--5------|--3-----------5-------------|
E|---------------7--5--3------|--1-----------3-------------|

E|----------------------------|----------------------------|
B|----------------------------|----------------------------|
G|----------------------------|----------------------------|
D|----------------------------|----------------------------|
A|-7--------------------------|-(7)------------------------|
E|-5--------------------------|-(5)------------------------|

E|----------------------------|
B|----------------------------|
G|----------------------------|
D|----------------------------|
A|-(7)------------------------|
E|-(5)------------------------|

Outro:

E|----------------------------|----------------------------|
B|----------------------------|----------------------------|
G|----------------------------|----------------------------|
D|----------------------------|----------------------------|
A|--7-----5---7---------5-----|7---5---/8----8--8--8-------|
E|-----7----------7-----------|----------------------------|

E|----------------------------|----------------------------|
B|----------------------------|----------------------------|
G|----------------------------|----------------------------|
D|----------------------------|----------------------------|
A|--7-----5---7---------5-----|7---5---/8----8--8--8-------|
E|-----7----------7-----------|----------------------------|

E|----------------------------|----------------------------|
B|----------------------------|----------------------------|
G|----------------------------|----------------------------|
D|----------------------------|----------------------------|
A|---7---5--/8----8--8--8-----|--7---5--/8---8--8--8-------|
E|----------------------------|----------------------------|

E|----------------------------|----------------------------|
B|----------------------------|----------------------------|
G|----------------------------|----------------------------|
D|------------/5---5--5--5----|----------5----5--5--5------|
A|---7----5-------------------|--7---5---------------------|
E|----------------------------|----------------------------|

E|----------------------------|----------------------------|
B|----------------------------|----------------------------|
G|----------------------------|----------------------------|
D|--2-------------------------|--3--2----------------------|
A|-----5--3--2----------------|--------5---3---2-----------|
E|--------------5---3---1---0-|-------------------5--13---|
                .   .   .   .

E|----------------------------|
B|----------------------------|
G|----------------------------|
D|---2------------------------|
A|---2------------------------|
E|---0------------------------|