Mastodon - Iron Tusk Chords & Tabs

 

Iron Tusk Chords & Tabs

Mastodon Chords & Tabs

Version: 2 Type: Bass Tab

Iron Tusk Bass Tab

Iron Tusk Bass Tab

G|----------------------------------------------------------|
D|-------777-------777-----888--555--333--222---------------|
A|----------------------------------------------------------|
E|---555------555--------5----------------------------------| x4

G|---------------------------------------------------------|
D|---------------------------------------------------------|
A|-----------------------------------333-222---------------|
E|---55555555555-3-555555----------------------------------|

G|-------------------------------------------------------|
D|------------------------------------333----------------|
A|------------------------------333----------------------|
E|---55555555555-3-555-------------333-------------------|

G|---------------------------------------------------------|
D|---------------------------------------------------------|
A|-----------------------------------333-222---------------|
E|---55555555555-3-555555----------------------------------|

G|----------------------------------------------------------------------------|
D|------------------------------------333-----------------------3--5--3-------|
A|------------------------------333--------------------333--------------------|
E|---55555555555-3-555-------------333--555-----------------------------------|

G|-------------------------------------------------------|
D|-------------333-----------------------3--5--3---------|
A|-------333--------------------333----------------------|
E|--555-------------333--555-----------------------------|

G|----------------------------------------------------------|
D|-------777-------777-----888--555--333--222---------------|
A|----------------------------------------------------------|
E|---555------555--------5----------------------------------| x4

G|---------------------------------------------------------|
D|---------------------------------------------------------|
A|-----------------------------------333-222---------------|
E|---55555555555-3-555555----------------------------------|

G|-------------------------------------------------------|
D|------------------------------------333----------------|
A|------------------------------333----------------------|
E|---55555555555-3-555-------------333-------------------|

G|---------------------------------------------------------|
D|---------------------------------------------------------|
A|-----------------------------------333-222---------------|
E|---55555555555-3-555555----------------------------------|
[ Tab from: https://www.guitartabs.cc/tabs/m/mastodon/iron_tusk_btab_ver_2.html ]
G|----------------------------------------------------------------------------|
D|------------------------------------333-----------------------3--5--3-------|
A|------------------------------333--------------------333--------------------|
E|---55555555555-3-555-------------333--555-----------------------------------|

G|-----------------------------------------------------------------------|
D|-----------------------------------------------------------------------|
A|-------------------------66------66-----------------88-------88--------|
E|---5555555555555-----555-----555555555-----555-------------------------| x2

G|----------------------------------------------------------------------------|
D|----------------------------------------------------------------------------|
A|----------------5--------6-3 --3-3h5p1--------------------------------------|
E|---3------------------------------------------------------------------------|

G|----------------------------------------------------------------------------|
D|----------------------------------------------------------------------------|
A|----------------5--------6-3 --3-3h5p1----3--0-00h1p0----------------------|
E|---3---------------------------------------------------------------4--------|

G|----------------------------------------------------------------------------|
D|----------------------------------------------------------------------------|
A|----------------5--------6-3 --3-3h5p1--------------------------------------|
E|---3------------------------------------------------------------------------|

G|----------------------------------------------------------------------------|
D|----------------------------------------------------------------------------|
A|----------------5--------6-3 --3-3h5p1----3--0-00h1p0----------------------|
E|---3---------------------------------------------------------------4--------|

G|-----------------------------------------------------------------------|
D|-----------------------------------------------------------------------|
A|-------------------------66------66-----------------88-------88--------|
E|---5555555555555-----555-----555555555-----555-------------------------| x6

G|----------------------------------------------------------|
D|-------777-------777-----888--555--333--222---------------|
A|----------------------------------------------------------|
E|---555------555--------5----------------------------------| x4

G|---------------------------------|
D|---------------------------------|
A|---------------------------------|
E|---55555555555-3-5---------------|