Mars Volta - Widow Chords & Tabs

 

Widow Chords & Tabs

Mars Volta Chords & Tabs

Version: 1 Type: Bass Tab

Widow Bass Tab

The Mars Volta
Bass - Juan Alderete
"The Widow"
This has alot of weird time signatures.  It's also played on a 1971 Fretless Fender Precision Bass.

G--------------------------------------------------------------------------|
D-7-------9s10---7-------10-------9---------------7----9-------------------|
A---------------------------------------7---10-----------------------------|
E--------------------------------------------------------------------------|

G-----9s7---7-----7s5------------------------------------------------------|
D-7---------------------5--------10s99s77s5-5----------------------------|
A--------------------------------------------------------------------------|
E----------------------------0---------------------------------------------|

G-------------------------14-----------------------------------------------|
D-7s9--9---10---12---14--------14---7--5-----------------------------------|
A-----------------------------------------7--------------------------------|
E--------------------------------------------------------------------------|

G------7-------------------------------------------------------------------|
D----7---------------------------------------------------------------------|
A-5-------5----5----7--------7---------------------------------------------|
E-----------------------5---------5---5-------7--0----3--------------------|

G--------------------------------------------------------------------------|
D-----2-----------2-----------------------7--------------------------------|
A--------------------------------7--5--7-------5s7-------------------------|
E-0--------0--0-------3--3---5---------------------------------------------|

G-------------------------------9s7--77s5-4-5-----9-----------------------|
D-77s9-9----10---12---14---9--------------------7----79s10--9------------|
A--------------------------------------------------------------------------|
E--------------------------------------------------------------------------|

G---------------------------------------14---------------------------------|
D------------5s7-7-7s9---10---12---14------14----7--5----------------------|
A-7----------------------------------------------------7-------------------|
E----7--0--7---------------------------------------------------------------|

G--------------------------------------------------------------------------|
D------7-------------------------------------------------------------------|
A-5--------5--5----5----7--------7-----------------------------------------|
E---------------------------5--------5--5---7--0--3------------------------|

G---------------------------------------------------------------------------|
D------2----------2-------------------5h7-5h7--5---7-5---5------------------|
A-------------------------------75h7------------7-----7---7----------------|
E-0--------0--0------3--3---5--------------------------------8s7------------|
[ Tab from: https://www.guitartabs.cc/tabs/m/mars_volta/widow_btab.html ]
G--------------------------------------------------------------------------|
D--------------------------------------------------------------------------|
A------7---------7---------------------------------------------------------|
E-5---------5---------77s0---7---0---7---3-3------------------------------|

G--------------------------------------------------------------------------|
D-----------------7--------------------------------------------------------|
A---------7--------------7-------------------------------------------------|
E-5-----------------------------7-7----------------------------------------|

G--------------------------------------------------------------------------|
D--------------------------------------------------------------------------|
A--------------------------------------------------------------------------|
E-0----------------------7-----------------0-----------7----------3-3------|

G--------------------------------------------------------------------------|
D---------------------------------------------------------7--------5-5-----|
A------------7----------------------7--------------------------------------|
E-5------------------5----------------7--7---0----7----0-------------------|

G---------------------------14---------------------------------------------|
D-7s9---9----10---12---14--------14----7----5------------------------------|
A------------------------------------------------7-------------------------|
E--------------------------------------------------------------------------|

G---------------------------14---------------------------------------------|
D-7s9---9----10---12---14--------14----7----5------------------------------|
A------------------------------------------------7-------------------------|
E--------------------------------------------------------------------------|

G--------------------------------------------------------------------------|
D--------7-----------------------------------------------------------------|
A-5------------5---5-------5----7--7----------7----------------------------|
E---------------------------------------5----------5--5----7--0---5---3----|

G--------------------------------------------------------------------------|
D-----2----------2------------------5s7--5--7--5--7--5---------------------|
A-------------------------------7------------------------7-----------------|
E-0-------0---0-----3--3----5----------------------------------------------|

G--------------------------------------------------------------------------|
D------7-------------------------------------------------------------------|
A-5----------5---5----5---7-7--------7-------------------------------------|
E--------------------------------5-------5-5-----7--5--3-------------------|

G--------------------------------------------------------------------------|
D--------------------------------------------------------------------------|
A--------------------------------------------------------------------------|
E-0-------------0-----------5----------------------------------------------|

Have fun