Mars Volta - Eriatarka Chords & Tabs

 

Eriatarka Chords & Tabs

Mars Volta Chords & Tabs

Version: 1 Type: Bass Tab

Eriatarka Bass Tab

   
-------------------------------------------------------------------------------
			     Eriatarka - The Mars Volta
-------------------------------------------------------------------------------

This is one of the many Mars Volta bass tabs I submitted to UG. I take no credit for 
because none of them are mine. I submitted them here because of the lack of Mars Volta bass tabs.

Band  Mars Volta
Song  Eriatarka
-Album  Deloused in the Comatorium
Tabbed by underthebridge1992

Standard Tuning E A D G

This is probably the most complicated song Ive tabbed out yet. Its pretty easy to play
though apart from the timing.

Intro

G|-------------------------------------------------------------------------|
D|-------------------------------------------------------------------------|
A|---5-5-5--0-0-0---2-2-2--2-2-2----2-----------/5------------/10----------|
E|-------------------------------------------------------------------------|
Verse

G|-----------------------------------------------------------|
D|-----------------------------------------------------------|
A|-2--2-2-2-2-2-5-5-5-5-5-5-10-10-10-10-10-10--2--2-2-2-2-2--|
E|-----------------------------------------------------------|

G|--------------------------------|
D|--------------------------------|
A|-5-5-5-5-5-5--------------------|
E|---------------------3-3-3-3-3-3|

Bridge

G|-------------------------------|
D|-------------------------------|
A|-2-----4----5----7-----11------|
E|-------------------------------|

Chorus
[ Tab from: https://www.guitartabs.cc/tabs/m/mars_volta/eriatarka_btab.html ]
G|----------------------------------------------------|
D|----------------------------------------------------|
A|-5-5-5-0-0-0-2-2-2-2-2-2-2-5-5-5-0-0-0-2-2-2-2-2-2-2|
E|----------------------------------------------------|

G|----------------------------------------------------|
D|----------------------------------------------------|
A|-5-5-5-0-0-0-2-2-2-2-2-2-2-5-5-5-0-0-0-2-2-2-2-2-2-2|
E|----------------------------------------------------|


G|---------------------|
D|---------------------|
A|-3-3-3-3-3-6-6-6-6-6-|
E|---------------------|

Bass stops at 1:46 to 2:05

Back to verse

Chorus

Change in Chorus at 3:38 to 4:03


G|--------------------------------------------------------------------|
D|--------------------------------------------------------------------|
A|-2-2-2-2-2---------------------5-5-5-5-5-5-5-5--0-0-0-0-0-0-0-0-0-0-|
E|---------------2-2-2-2-2-2-2----------------------------------------|

It does the same here but the rhythm changes a little

Bridge

Chorus

 G|------------------------------------------------------|
 D|------------------------------------------------------|
 A|-5---0-2-2-2-2-2-2-2-2-2-2--5---0-2-2-2-2-2-2-2-2-2-2-|
 E|------------------------------------------------------|

G|-------------------------------------------------------|
 D|------------------------------------------------------|
 A|-5---0-2-2-2-2-2-2-2-2-2-2--5---0-2-2-2-2-2-2-2-2-2-2-|
 E|------------------------------------------------------|

G|---------------------|
D|---------------------|
A|-3-3-3-3-3-6-6-6-6-6-|
E|---------------------|


End

G|-------------------|
D|-------------------|
A|-5-5-5-0-0-0--2-2-2|
E|-------------------|